Song name
# A B C D E F G H I J K L M N O P Q R S T U V W X Y Z

Misc Unsigned Bands - Yashin - Mr Hyde tab

   T    T    T    T    T    T   T   T   T   T   T    T   T    T    T    T   T    T
D|-------------------------------------------------------------------------------------|
A|-10-7-10-7-10-7-10-7-10-7-9-7-9-7-9-7-9-7-9-7-10-7-9-7-10-7-12-7-10-7-9-7-10-7-9-7---|
F|-------------------------------------------------------------------------------------|
C|-------------------------------------------------------------------------------------|
G|-------------------------------------------------------------------------------------|
C|-------------------------------------------------------------------------------------|

   T    T    T    T    T    T   T   T   T   T   T    T   T    T    T    T   T    T
D|-------------------------------------------------------------------------------------|
A|-10-5-10-5-10-5-10-5-10-5-9-5-9-5-9-5-9-5-9-5-10-5-9-5-10-5-12-5-10-5-9-5-10-5-9-5---|
F|-------------------------------------------------------------------------------------|
C|-------------------------------------------------------------------------------------|
G|-------------------------------------------------------------------------------------|
C|-------------------------------------------------------------------------------------|

   T    T    T    T    T    T   T   T   T   T   T    T   T    T    T    T   T    T
D|-------------------------------------------------------------------------------------|
A|-10-3-10-3-10-3-10-3-10-3-9-3-9-3-9-3-9-3-9-3-10-3-9-3-10-3-12-3-10-3-9-3-10-3-9-3---|
F|-------------------------------------------------------------------------------------|
C|-------------------------------------------------------------------------------------|
G|-------------------------------------------------------------------------------------|
C|-------------------------------------------------------------------------------------|

   T    T    T    T    T    T   T   T   T   T   T    T   T    T    T    T   T    T
D|-------------------------------------------------------------------------------------|
A|-10-5-10-5-10-5-10-5-10-5-9-5-9-5-9-5-9-5-9-5-10-5-9-5-10-5-12-5-10-5-9-5-10-5-9-5---|
F|-------------------------------------------------------------------------------------|
C|-------------------------------------------------------------------------------------|
G|-------------------------------------------------------------------------------------|
C|-------------------------------------------------------------------------------------|

Repeat as many times as needed!
Im working on the rest of the song and other Yashin songs!
Watch this space!
Tap to rate this tab
# A B C D E F G H I J K L M N O P Q R S T U V W X Y Z