Guitaretab - guitar tabs
Song name
# A B C D E F G H I J K L M N O P Q R S T U V W X Y Z

Misc Unsigned Bands - I Call Shotgun - Ride With Me tab

Chill cover by I Call shotgun and this is how i play it, the rhytm is kinda 
difficult so youll have to listen closely

Tuning:EADGBe

Intro

Guitar 1
e|------------------------------------------------------------------------|
B|10----10----------------------------------------------------------------|
G|--11----13-----11----11----11---------13--------------------------------|
D|----11----14-----12----12-----------14--14--14--------------------------|
A|9-----------14-----12----12-------14------14----------------------------|
E|--------12-----10------------10/12--------------------------------------|


Guitar 2
e|-x--------x-----x----------------x--------------------------------------|
B|14------12-----10---------------12--------------------------------------|
G|14------13-----11---------------13--------------------------------------|
D|16------14-----12---------------14--------------------------------------|
A|16------14-----12---------------14--------------------------------------|
E|14------12-----10---------------12--------------------------------------|
[ Tab from: http://www.guitaretab.com/m/misc-unsigned-bands/187612.html ]
Guitar 1
e|------------------------------------------------------------------------|
B|1010h12p10-------------------------------------------------------------|
G|-11--------11--13----11----11----11---------13--------------------------|
D|-------------11--14----12----12-----------14--14--14--------------------|
A|9------------------14----12----12-------14------14----------------------|
E|---------------12----10------------10/12--------------------------------|

Guitar 2
e|-x--------x-----x----------------x--------------------------------------|
B|14------12-----10---------------12--------------------------------------|
G|14------13-----11---------------13--------------------------------------|
D|16------14-----12---------------14--------------------------------------|
A|16------14-----12---------------14--------------------------------------|
E|14------12-----10---------------12--------------------------------------|

Intro chorus is the first part of the intro and you can choose wich guitar you want to play

The rest of the song is

F#m x91212119 sounds better at 1416161514x but hard to play without cutaway
E   1214141312x
D   1012121110x
E   1214141312x

Over and over again

Youll have to listen to the rhytm to figure out what works for you

Good luck

Related for I Call Shotgun - Ride With Me tab