Song name
# A B C D E F G H I J K L M N O P Q R S T U V W X Y Z

Misc Unsigned Bands - Killrbuckeye - The Rising tab

The Rising by Killrbuckeye
Tuning:Drop C

Okay again this is from his website im just transcribing it too a text format for people 
you looking at this to play,read,study or whatever you do alot easier

Left Guitar
D|---0---0---0---0---0--0---0---0-|
A|-3---3---0---0---7--7---8---8---|
F|--------------------------------|
C|--------------------------------|
G|--------------------------------|
C|--------------------------------|

D|---0---0---0---0----0----0---0---0-|
A|-3---3---0---0---10---10---8---8---|
F|-----------------------------------|
C|-----------------------------------|
G|-----------------------------------|
C|-----------------------------------|

D|---0---0---0---0---0---0---0---0----0----0---0---0--|
A|-3---3---0---0---7---7---8---8---10---10---8---8----|
F|----------------------------------------------------|
C|----------------------------------------------------|
G|----------------------------------------------------|
C|----------------------------------------------------|

D|---0---0---0---0---0---0---0---0-|
A|-3---3---0---0---7---7---8---8---|
F|---------------------------------|
C|---------------------------------|
G|---------------------------------|
C|---------------------------------|

D|---0---0---0---0----0----0---0---0-|
A|-3---3---0---0---10---10---8---8---|
F|-----------------------------------|
C|-----------------------------------|
G|-----------------------------------|
C|-----------------------------------|
pretty much play with the song to know when the palm muting is
and pretty much play this the whole intro with the left guitar

right guitar(on the guitar pro file the right guitar doesnt come in for eight measures 
listen to the song)

D|---3---3---3---3--------------------------------|
A|-7---7---5---5----10---10---12---12-------------|
F|---------------------9----9----9----9-----------|
C|------------------------------------------------|
G|------------------------------------------------|
C|------------------------------------------------|

D|---3---3---3---3--8---8---7---7----|
A|-7---7---5---5------8---8---8---8--|
F|-----------------------------------|
C|-----------------------------------|
G|-----------------------------------|(do this 2 times and play the same thing but palm 
ummm since i gotta go i will finish this later by updating it :) and you can view this 
on youtube or you can go to his website www.killrbuckeye.com for the guitar pro tablature
Tap to rate this tab
# A B C D E F G H I J K L M N O P Q R S T U V W X Y Z