Song name
# A B C D E F G H I J K L M N O P Q R S T U V W X Y Z

Misc Unsigned Bands - Guns Of Autumn - Glasgow Smile tab

This is a song from our EP - The Damned and The Dead. We use 7 strings tuned to drop A.

Riff 1

e------------------|
b------------------|
g------------------|
d------------------|
a------------------|
e---------444-777--|
A-555-888----------|


QUICK PAUSE


Riff 2

e---------------------------------------------------------------------|
b---------------------------------------------------------------------|
g---------------------------------------------------------------------|
d---------------------------------------------------------------------|
a----------------------------------------------------------5-8-5------|
e-----8p5h8p5-----10p7h10p7-----8*-----8p5h8p5---------4-7-------7----|
A-0-0---------0-0-----------0-0----0-0---------0-0-5-8----------------|


e---------------------------------------------------------------------|
b---------------------------------------------------------------------|
g---------------------------------------------------------------------|
d---------------------------------------------------------------------|
a---------------------------------------------------------------------|
e-----8p5h8p5-----10p7h10p7-----8*-----8p5h8p5---------4-7------7-10--|
A-0-0---------0-0-----------0-0----0-0---------0-0-5-8-----8-11-------|


Riff 2 (Harmony)

e----------------------------------------------------------------------------|
b----------------------------------------------------------------------------|
g----------------------------------------------------------------------------|
d----------------------------------------------------------------------------|
a------------------------------------------------------------------8-11-8----|
e-----12p8h12p8-----13p10h13p10-----12*----12p8h12p8----------7-10--------10-|
A-0-0-----------0-0-------------0-0----0-0-----------0-0-8-11----------------|


e----------------------------------------------------------------------------|
b----------------------------------------------------------------------------|
g----------------------------------------------------------------------------|
d----------------------------------------------------------------------------|
a----------------------------------------------------------------------------|
e-----12p8h12p8-----13p10h13p10-----12*----12p8h12p8-------------------------|
A-0-0-----------0-0-------------0-0----0-0-----------0-0---------------------|


Ending of Riff 2


e--------------------------------------|
b--------------------------------------|
g--------------------------------------|
d--------------------------------------|
a---------5-8-5--------------8-11-8----|
e-----4-7-------7-------7-10--------10-|
A-5-8--------------8-11----------------|


Ending of Riff 2 (Harmony / Lead)

e----------------------------------------------|
b----------------------------------------------|
g----------------------------------------------|
d----------------------------------------------|
a-----------8-11-8-----------------11-14-11----|
e------7-10--------10--------10-13----------13-|
A-8-11-----------------11-14-------------------|


e----------------------------------|
b----------------------------------|
g----------------------------------|
d-12-9----9------------------------|
a------11---11-8-11-8----11--------|
e---------------------10----10-7---|
A----------------------------------|


Riff 3 (Lead)


e--------------------------------------------------|
b--------------------------------------------------|
g--------------------------------------------------|
d--------------------------------------------------|
a-----------------------------------------7--------|
e-------5-----8---------------5-----8-----------8--|
A-0-0-0---0-0---0-0-0-0-0-0-0---0-0---0-0---0-0----|

e--------------------------------------------------|
b--------------------------------------------------|
g--------------------------------------------------|
d--------------------------------------------------|
a-----------------------------------------5--------|
e-------4-----7---------------4-----7-----------7--|
A-7-7-7---7-7---7-7-7-7-7-7-7---7-7---7-7---7-7----|

e-----------------------------------------------------|
b-----------------------------------------------------|
g-----------------------------------------------------|
d-----------------------------------------------------|
a-------------------------------------------8---------|
e-------7-----10---------------7-----10-----------10--|
A-8-8-8---8-8----8-8-8-8-8-8-8---8-8----8-8---8-8-----|

e-----------------------------------------------------|
b-----------------------------------------------------|
g-----------------------------------------------------|
d-----------------------------------------------------|
a-----------------------------------------------------|
e-------7-----10---8---7----------3---5---------8---7-|
A-7-7-7---7-7----7---7---7--3-3-3---3---3/5-5-5---5---|


Riff 3 (Back Up Guitar)

e------------------------------|
b------------------------------|
g------------------------------|
d------------------------------|
a-0---7---8---7---3--5---------|
e-0---7---8---7---3--5---------|
A-0---7---8---7---3--5---------|


Riff 4

e--------------------------------------|
b--------------------------------------|
g--------------------------------------|
d--------------------------------------|
a--------------------------------------|
e-------------5-7-8-------------5-7-8--|
A-0-0-000-0-0-------0-0-000-0-0--------|

e--------------------------------------|
b--------------------------------------|
g--------------------------------------|
d--------------------------------------|
a----------7-----------------10--------|
e-8-888888---10-8--7-777777-----8-7----|
A-8-888888---------7-777777------------|


Back to Riff 3

Back to Riff 4


Riff 5

e--------------------------------------|
b--------------------------------------|
g--------------------------------------|
d--------------------------------------|
a--------------------------------------|
e--------------------------5-7-8-------|
A-0-0-000-0-0------0-000-0-------------|


e--------------------------------------|
b--------------------------------------|
g--------------------------------------|
d--------------------------------------|
a--------------------------------------|
e--------------------------5-7-8-------|
A-0-0-000-0-0------0-000-0-------------|


e--------------------------------------|
b--------------------------------------|
g--------------------------------------|
d--------------------------------------|
a--------------------------7-----------|
e----------------------------10-8------|
A-8-8-888-8-8------8-888-8-------------|


e--------------------------------------|
b--------------------------------------|
g--------------------------------------|
d--------------------------------------|
a--------------------------10----------|
e-----------------------------8-7------|
A-7-7-777-7-7------7-777-7-------------|


Riff 6

e-------------------------------------------------|
b-------------------------------------------------|
g-------------------------------------------------|
d-------------------------------------------------|
a-------7-----------7-----------7-----------7-----|
e-0-5-8---8-5-0-5-8---8-5-0-5-8---8-5-0-5-8---8-5-|
A-------------------------------------------------|

e-------------------------------------------------|
b-------------------------------------------------|
g-------------------------------------------------|
d-------------------------------------------------|
a-------5-----------5-----------5-----------5-----|
e---4-7---7-4---4-7---7-4---4-7---7-4---4-7---7-4-|
A-7-----------7-----------7-----------7-----------|

e---------------------------------------------------------|
b---------------------------------------------------------|
g---------------------------------------------------------|
d---------------------------------------------------------|
a--------8-------------8-------------8-------------8------|
e---7-10---10-7---7-10---10-7---7-10---10-7---7-10---10-7-|
A-8-------------8-------------8-------------8-------------|

Ending # 1 to Riff 6

e------------------------------|
b------------------------------|
g------------------------------|
d------------------------------|
a------------------------------|
e-8888777755554444-5~4*~-------|
A------------------------------|

Ending # 2 to Riff 6

e------------------------------|
b------------------------------|
g------------------------------|
d------------------------------|
a---------88887777-12~-11*~----|
e-88887777---------------------|
A------------------------------|


Riff 7

e-------------------------------------------------|
b-------------------------------------------------|
g-------------------------------------------------|
d-------------------------------------------------|
a-------------------------------------------------|
e-------8-7-8-------8-7-8-------5-7-5------5-7-5--|
A-0-0-0-------0-0-0-------0-0-0-------0-0-0-------|

e--------------------------------------------------------|
b--------------------------------------------------------|
g--------------------------------------------------------|
d--------------------------------------------------------|
a--------------------------------------------------------|
e-------12-10-12-------12-10-12-------15-----13-----10*--|
A-8-8-8----------8-8-8----------0-0-0----0-0----0-0------|


Riff 7 (Harmony)

e-------------------------------------------------|
b-------------------------------------------------|
g-------------------------------------------------|
d-------------------------------------------------|
a-------7-5-7-------7-5-7-------3-5-3------3-5-3--|
e-------------------------------------------------|
A-0-0-0-------0-0-0-------0-0-0-------0-0-0-------|

e--------------------------------------------------------|
b--------------------------------------------------------|
g--------------------------------------------------------|
d--------------------------------------------------------|
a-------10-8-10-------10-8-10-------14-----12-----9*~----|
e--------------------------------------------------------|
A-8-8-8---------8-8-8---------0-0-0----0-0----0-0--------|


Riff 8

e----------------------------------------------------------------------|
b----------------------------------------------------------------------|
g----------------------------------------------------------------------|
d----------------------------------------------------------------------|
a----------------------------------------------------------------------|
e-8p7---------8p7---------8p7-----5h7-7777-7p4---------7p4---------7p4-|
A-----000-000-----000-000----000---------------000-000-----000-000-----|

e--------------|
b--------------|
g--------------|
d--------------|
a--------------|
e-4h5-5555-----|
A--------------|


Riff 9

e--------------------------------------------------------------------------|
b--------------------------------------------------------------------------|
g--------------------------------------------------------------------------|
d--------------------------------------------------------------------------|
a--------------------------------------------------------------------------|
e-8p7---------------------------5h7-7777-7p4-------------------------------|
A-----777-777--777-777--777-777--------------444-444--444-444--444-444-----|

e--------------|
b--------------|
g--------------|
d--------------|
a--------------|
e-4h5-5555-----|
A--------------|


Riff 10 Breakdown (Pt.1)

e-------------------------------------------|
b-------------------------------------------|
g-------------------------------------------|
d-------------------------------------------|
a-------------------------------------------|
e-------------------------------------------|
A-000-000-000---000----000-000--0---0--0-3b-|


Ending to Pt.1

e------------------------------------------|
b------------------------------------------|
g------------------------------------------|
d------------------------------------------|
a------------------------------------------|
e-------------------------------------2----|
A-000-000-000---000----000-000--0---3---3b-|


Riff 10 Breakdown (Pt.2)

e-------------------------------------------|
b-------------------------------------------|
g-------------------------------------------|
d-------------------------------------------|
a-------------------------------------------|
e-------------------------------------------|
A-0-0-0---00----0-0-0--0--0---0000---0000---|


Ending to Pt.2

e-------------------------------------------|
b-------------------------------------------|
g-------------------------------------------|
d-------------------------------------------|
a-------------------------------------------|
e---------------------------------2----2----|
A-0-0-0---00----0-0-0--0--0---0-3---3b---3b-|


Riff 10 Breakdown Ending (Pt.3 Slower than Pt.2)

e-------------------------------------------|
b-------------------------------------------|
g-------------------------------------------|
d-------------------------------------------|
a-------------------------------------------|
e-------------------------------------------|
A-0-0-0---00----0-0-0--0--0---0000---0000---|


e-------------------------------------------------|
b-------------------------------------------------|
g-------------------------------------------------|
d-------------------------------------------------|
a-------------------------------------------------|
e---------------------------------2----2----2-----|
A-0-0-0---00----0-0-0--0--0---0-3---3b---3b---3b~-|


Ending

e-----------------|
b-----------------|
g-----------------|
d-----------------|
a-0~--------------|
e-0~--------------|
A-0~--------------|


Song Order:

Riff 1 x 1
QUICK PAUSE
Riff 2 x 2
Riff 2 (Harmony/Lead) Play last time through Riff 2
Riff 3 (Lead & Backup) x 2
Riff 4 x 2
Riff 3 (Lead & Backup) x 2
Riff 4 x 2
Riff 5 x 4
Riff 6 (Over 3rd time through Riff 5)
Ending #1 to Riff 6
Riff 6 (Over 4th time through Riff 5)
Ending #2 to Riff 6
Riff 7 x 4
Riff 7 (Harmony) Played last 2 times of Riff 7
Riff 8 x 2
Riff 9 x 2
Riff 10 Breakdown (Pt.1) x 8
Ending to Pt.1 x 1 (Played on 8th time through)
Riff 10 Breakdown (Pt.2) x 2
Ending to Pt.2 x 1 (Played on the 2nd time through)
Riff 10 Breakdown (Pt.3) x 1
Ending x 1

That's every part to this song. Enjoy.
Tap to rate this tab
# A B C D E F G H I J K L M N O P Q R S T U V W X Y Z