Song name
# A B C D E F G H I J K L M N O P Q R S T U V W X Y Z

Misc Unsigned Bands - Yesca - Lost Due To Incompetence tab

#---------------------------------------PLEASE NOTE---------------------------------------#
# --This file is the author’s own work and represents their interpretation of the song.---#
# ----------Only intended to be used for private study, scholarship, or research. --------#
#-----------------------------------------------------------------------------------------#


Author/Artist :  Yesca
Title : Lost Due To Incompetence
Album : Cheech & Chong Up In Smoke
Transcribed By : EvenFlow756
Date : 6/5/09


All right I looked everywhere for this tab and couldn’t find it anywhere
so I decided to sit down and do it. I did it by ear so its not going to be
100% correct, however; I tried to get it as accurate as possible. Anyway,
if you listen and play along with the song you’ll get it. The song is in A,
and the entire solo is in the minor pentatonic scale so you can play around
with the arrangement and its best to just improvise the ending.


Enjoy.


[Intro]
                    A  G   A  G   A  G                       A  G   A  G   A  G
-|-5-4-5-4-5-4-5-|--5--3---5--3---5--5--|--5-4-5-4-5-4-5--|--5--3---5--3---5--5-|
-|---------------|--5--3---5--3---5--5--|-----------------|--5--3---5--3---5--5-|
-|---------------|--6--4---6--4---6--4--|-----------------|--6--4---6--4---6--4-|
-|---------------|--7--5---7--5---7--5--|-----------------|--7--5---7--5---7--5-|
-|---------------|--7--5---7--5---7--5--|-----------------|--7--5---7--5---7--5-|
-|---------------|--5--3---5--3---5--3--|-----------------|--5--3---5--3---5—3--|

                    A  G   A  G   A  G                       A  G   A  G   A  G
-|-5-4-5-4-5-4-5-|--5--3---5--3---5--5--|--5-4-5-4-5-4-5--|--5--3---5--3---5--5-|
-|---------------|--5--3---5--3---5--5--|-----------------|--5--3---5--3---5--5-|
-|---------------|--6--4---6--4---6--4--|-----------------|--6--4---6--4---6--4-|
-|---------------|--7--5---7--5---7--5--|-----------------|--7--5---7--5---7--5-|
-|---------------|--7--5---7--5---7--5--|-----------------|--7--5---7--5---7--5-|
-|---------------|--5--3---5--3---5--3--|-----------------|--5--3---5--3---5--3-|

[Sax Solo]

[Guitar Solo]

-|-----------------------------------------------------------------------------|
-|--15b17-15b16b17vv-20-17-----------------------------------------------------|
-|-------------------------19-17—19b21-17-19-19b21-19r17vvvv----17-19-17-------|
-|-----------------------------------------------------------19-----------19vv-|
-|-----------------------------------------------------------------------------|
-|-----------------------------------------------------------------------------|

-|----------------------------------------------------------------------------|
-|----------17-------------20-17-20-21b22r20-17----17-------17-------20-17-20-|
-|----17h19-------17h19-21----------------------19----17h19----17h19----------|
-|-19----------19-------------------------------------------------------------|
-|----------------------------------------------------------------------------|
-|----------------------------------------------------------------------------|

-|-----------------------------------------------------------------------------|
-|--20b22-20b22-20b22r20-17-22b24r22-22b24-22b24r22-20-22-20-17----17----------|
-|--------------------------------------------------------------19----19-17b19-|
-|-----------------------------------------------------------------------------|
-|-----------------------------------------------------------------------------|
-|-----------------------------------------------------------------------------|

-|------------------------------------------------|----------------------------|
-|------------------------------------------------|----------------------------|
-|--19-17----17-19b21-19-21b22-21-19-17-19-17-----|----------------------------|
-|--------19----------------------------------19--|----------------------------|
-|------------------------------------------------|----------------------------|
-|------------------------------------------------|----------------------------|

-|-----------------------------------------------------------------------------|
-|-----------------------------------------------------------------------------|
-|--19-17----17-19b21r17-------------------------------------------------------|
-|--------19--------------19-17----17-19b21r17-------------------17-19-17------|
-|------------------------------19-------------19-17/22-19-17-19----------19---|
-|-----------------------------------------------------------------------------|

-|-----------------------------------------------------------------------|-----|
-|-------------------------------------------17-20-17----17—20vvv-22b24--|-----|
-|--------------------17---17-19-21-19-17-19----------19-----------------|-----|
-|--17-19-22-19-17-19---19-----------------------------------------------|-----|
-|-----------------------------------------------------------------------|-----|
-|-----------------------------------------------------------------------|-----|


Attention all uits, Attention all units, this is Sgt. Stadenko.
Attention all units this is Sgt. Stadenko. We are changing
from a code 3, direct pursuit to a code 347,… completely lost due to incompetence.


                    A  G   A  G    A G                       A  G   A  G    A G
-|-5-4-5-4-5-4-5-|--5--3---5--3---5--5--|--5-4-5-4-5-4-5--|--5--3---5--3---5--5-|
-|---------------|--5--3---5--3---5--5--|-----------------|--5--3---5--3---5--5-|
-|---------------|--6--4---6--4---6--4--|-----------------|--6--4---6--4---6--4-|
-|---------------|--7--5---7--5---7--5--|-----------------|--7--5---7--5---7--5-|
-|---------------|--7--5---7--5---7--5--|-----------------|--7--5---7--5---7--5-|
-|---------------|--5--3---5--3---5--3--|-----------------|--5--3---5--3---5--3-|

-|-----------------------------------------------------------------------------|
-|--22b24r22vvv--------17b19r17vvv--15b17r13vvv-13-15-13-----------------------|
-|-------------------------------------------------------14--------------------|
-|-----------------------------------------------------------------------------|
-|-----------------------------------------------------------------------------|
-|-----------------------------------------------------------------------------|

-|-----------------------------------------------------------------------------|
-|--17b19r17vvv--15b17r13vvv-13-15-17--15-17-15-17b19r17vvv--------------------|
-|-----------------------------------------------------------------------------|
-|-----------------------------------------------------------------------------|
-|-----------------------------------------------------------------------------|
-|-----------------------------------------------------------------------------|

-|--15b17r13vvv--15-15r13vvv--------13vvv-------15vvv-13-15-13-----------------|
-|---------------------------14vvv--------14vvv----------------14-14b16--------|
-|-----------------------------------------------------------------------------|
-|-----------------------------------------------------------------------------|
-|-----------------------------------------------------------------------------|
-|-----------------------------------------------------------------------------|

-|--13-15b17--15-17b19-17-20b22-17-20-22-20-17-15-17-20-17-15-13-15-13---------|
-|---------------------------------------------------------------------14------|
-|-----------------------------------------------------------------------------|
-|-----------------------------------------------------------------------------|
-|-----------------------------------------------------------------------------|
-|-----------------------------------------------------------------------------|


-|-----------------------------------------------------------------------------|
-|-----------------------------------------------------------------------------|
-|------------------------------[IMPROVISE]------------------------------------|
-|-----------------------------------------------------------------------------|
-|-----------------------------------------------------------------------------|
-|-----------------------------------------------------------------------------|
Tap to rate this tab
 
# A B C D E F G H I J K L M N O P Q R S T U V W X Y Z