Song name
# A B C D E F G H I J K L M N O P Q R S T U V W X Y Z

Misc Unsigned Bands - Ashe Watson - Milk Carton tab

Artist: Ashe Watson
Song: Milk Carton
Tabbed By: Sam

Capo 9
                 t                  t
E--------2---------|--------2---------|--------2---------|
B------------------|------------------|------------------|
G------4---3h4-----|------4---3h4-----|------4---3h4-----|
D----2-------------|----2-------------|------------------|
A------------------|------------------|----2-------------|
E--0---------------|--0---------------|--4---------------|

E------------------|------------------|
B----------2-------|----------2-------|
G------3-4---------|------3-4---------|
D----2-------------|----4-------------|
A------------------|------------------|
E--0---------------|--4---------------|
Tap to rate this tab
 
# A B C D E F G H I J K L M N O P Q R S T U V W X Y Z