Song name
# A B C D E F G H I J K L M N O P Q R S T U V W X Y Z

Misc Unsigned Bands - Screw The Pooch - Hole Of Sorrow tab

This is a song I made at the Spur of the moment and it just popped in my head.
I'm thinking about making a bass and a rhythm guitar part to it for my band.
I Hope you guys enjoy it, this is my first tab.


|--------------------------------------------------------------------------|
|---13-----------13-----------11---------------------------~~~~~~~~~~~-----|
|14-----14----12-----12----10-----10----/10-/12-/14------~~REPEAT ONCE~~---|
|15-----------14-----------12-----------/12-/14-/15--------~~~~~~~~~~~-----|
|--------------------------------------------------------------------------|
|--------------------------------------------------------------------------|



|--------------------------------------------------------------------------|
|----13----13-------13----13------ 11----11---/11-/13----------------------|
|14-----14-------12----12------10-----10--------------/14------------------|
|15--------------14------------12-------------/12-/14-/15------------------|
|--------------------------------------------------------------------------|
|--------------------------------------------------------------------------|



|13-13-13----12-12-12----10-10-10-10-10----/12----/13----------------------|
|13-13-13----13-13-13----11-11-11-11-11----/13----/13----------------------|
|14-14-14----12-12-12----10-10-10-10-10----/12----/14-------REPEAT ONCE----|
|15-15-15----14-14-14----12-12-12-12-12----/14----/15----------------------|
|--------------------------------------------------------------------------|
|--------------------------------------------------------------------------|

         SWEEP PICKING TIME! MY FAVORITE
 ^^   
|17~~17-13----------13-17p-13----------13-12-8---------8-12p-8---------8---|
|----------15----15-----------15----15---------10---10---------10---10-----|
|-------------14-----------------14---------------9---------------9--------|
|--------------------------------------------------------------------------|
|--------------------------------------------------------------------------|
|--------------------------------------------------------------------------|



|10-6-------6-10p-6-------6-9p-5-------5-9---/14~~~~~~~~~~~~---------------|
|-----8---8---------8---8--------7---7----------------~~~~~~~~~~-----------|
|-------7-------------7------------6--------------------~~~~~~~~~~~--------|
|------------------------------------------------------------~~~~~~~~~-----|
|--------------------------------------------------------------------------|
|--------------------------------------------------------------------------|



|-REPEAT-FOUR----|-REPEAT-FOUR|--------------------------------------------|
|----TIMES-------|-TIMES------|--------------------------------------------|
|----------------|------------|---------REPEAT ONCE------------------------|
|4-4-4-4-4--5--/2|4-4-4-4-4---|-----------------------/2-/4----------------|
|4-4-4-4-4--5--/2|4-4-4-4-4---|-----------------------/2-/4----------------|
|2-2-2-2-2--3--/0|2-2-2-2-2---|-----------------------/0-/2----------------|



That is it for now I'll add more later. =)
Tap to rate this tab
 
# A B C D E F G H I J K L M N O P Q R S T U V W X Y Z