Song name
# A B C D E F G H I J K L M N O P Q R S T U V W X Y Z

Misc Unsigned Bands - Black Thursday - Age Of Destruction tab

1----------------------------l
2----------------------------l
3----------------------------l
4----------------------------l                 l
5-3-3-3-3-3-3-3-3-3-3-3-3-4-4l   <-do these chords twice then do this     v
6-1-1-1-1-1-1-1-1-1-1-1-1-2-2l
     x  x  x  x   x   x  x  x   x  x   x  x  

1------------------------------------------------------------|
2------------------------------------------------------------|
3------------------------------------------------------------|
4------------------------------------------------------------|
5-3-3-3-3-3-3-3-3-3-3-3-3-3-3-3-3-3-3-3-3-3-3-3-3-3-3-3-3-4-4|
6-1-1-1-1-1-1-1-1-1-1-1-1-1-1-1-1-1-1-1-1-1-1-1-1-1-1-1-1-2-2|
     x  x   x  x   x  x  x  x   x  x   x  x  x  x  x   x  x   x  x  x  x   x  x  x  x   


solo

1------------------------0h1h3-0h1h3-0h1h3-0h1h3|
2-0h1h3-0h1h3-0h1h3-0h1h3-----------------------|
3-----------------------------------------------|
4-----------------------------------------------|
5-----------------------------------------------|
6-----------------------------------------------|




h=hammer on
x=mute
Tap to rate this tab
 
# A B C D E F G H I J K L M N O P Q R S T U V W X Y Z