Song name
# A B C D E F G H I J K L M N O P Q R S T U V W X Y Z

Misc Unsigned Bands - Robert Hunter - Supbrowannachill tab

Not complete; just an improvisation - decided to tab it out.

Key Legend
h - hammer on
p - pull off
/ - slide up
\ - slide down
~ - vibrato
b - bend
r - release
sr- slow release
t - tap


|-----------------------|-----------------------|
|-----------------------|-----------------------|
|-----11-11----11-12-11-|-----11-11----11-12-11-|
|-9-9--------9----------|-9-9--------9----------|
|-----------------------|-----------------------|
|-----------------------|-----------------------|

|-----------------------|----------------------------|
|-----------------------|----------------------------|
|-----11-11----11-12-11-|-----11-11----11-12-11---9~-|
|-9-9--------9----------|-9-9--------9---------------|
|-----------------------|----------------------------|
|-----------------------|----------------------------|

|----------------------|--------------------|
|----------------------|--------------------|
|-11p9\7--9p7\5--------|--------------------|
|----------------7-5b~-|--5h7/10b~--10-8b~--|
|----------------------|--------------------|
|----------------------|--------------------|

|------------------------------------------|
|------------------------------------------|
|-----------10p8h10p8----------------------|
|-10p8h10p8-----------10---------10-8------|
|-----------------------9b~-----9----9b~---|
|------------------------------------------|

|-------------------------------------------|
|-------------------------------------------|
|-------------------------------------------|
|--10-8-------10-8-------10-8-------10-8----|
|-9----9b~---9----9b~---9----9b~---9----9b~-|
|-------------------------------------------|

|---------------------------------------------------------|
|---------------------------------------------------------|
|------------------------------9h11-10h12-11h13-12h14-15~-|
|--10-8--8h10-9h11-10h12-11h13----------------------------|
|-9-------------------------------------------------------|
|---------------------------------------------------------|
                  (sweep)
|--------------------10-----10-13~-13-15~-15-17~--15b17sr15-|
|-------------------11--------------------------------------|
|-15p12\9h12-------12---------------------------------------|
|-----------------------------------------------------------|
|-----------------------------------------------------------|
|-----------------------------------------------------------|

|-15p13--------12p10--------------------------|--9---|
|------15p13--------12p10---------------------|--7---|
|--------------------------14b16~-------------|--7---|
|---------------------------------------------|--7---|
|---------------------------------------------|--7---|
|---------------------------------------------|--7---|

|-9p7-------------------------------------------|
|----9-7----------------------------------------|
|-------9--9p7-------------12-11-9-7-9-7-5------|
|-------------10-8h10/12~------------------7-5~-|
|-----------------------------------------------|
|-----------------------------------------------|

|--------------------------------------|
|--------------------------------------|
|--------------10p8h10p8---------------|
|-5h7-10p8h10p8---------10-----10-8----|
|-------------------------9~--9----9b~-|
|--------------------------------------|

|--------------------------------------------|
|--------------------------------------------|
|--------------------------------------------|
|--10-8---10-8---10-8---10-8---10-8---10-8---|
|-9----9-9----9-9----9-9----9-9----9-9----9--|
|--------------------------------------------|

|-------------------------------------------------------------------|
|-------------------------------------------------------------------|
|-------------------------------------------------------------------|
|--10-8-------13-11------10-8-------13-11------10-8-------13-11-----|
|-9----9/12-12-----12\9-9----9/12-12-----12\9-9----9/12-12-----12\9-|
|-------------------------------------------------------------------|

|------------------------------------------------------|
|------------------------------------------------------|
|-------8h10----9h11-----10h12-----11h13-----12h14 15~-|
|---8h10----9h11----10h12-----11h13-----12h14----------|
|-9----------------------------------------------------|
|------------------------------------------------------|

|------------------------|
|------------------------|
|-15-14-12--------15~----|
|---------15-14-12-------|
|------------------------|
|------------------------|

|-------------------------------------|
|-------------------------------------|
|-14t15t17t14t15t17t14t15t17t14t15t17-|
|-------------------------------------|
|-------------------------------------|
|-------------------------------------|

|-------------------------------------|
|-------------------------------------|
|-16t17t19t16t17t19t16t17t19t16t17t19-|
|-------------------------------------|
|-------------------------------------|
|-------------------------------------|

|------------------------------------------------|
|------------------------------------------------|
|-18t19t21t18t19t21t18t19t21t18t19t21--22b26~~~--|
|------------------------------------------------|
|------------------------------------------------|
|------------------------------------------------|
Tap to rate this tab
# A B C D E F G H I J K L M N O P Q R S T U V W X Y Z