Song name
# A B C D E F G H I J K L M N O P Q R S T U V W X Y Z

Misc Unsigned Bands - Dysfunctional Kid - Summer Of 99 tab

Tabbed by: itstrashrecords@hotmail.com
Album: Split w/ Gino's Eyeball
Tuning: Standard
Distortion: High

Intro Guitar 1
E|-----------------------------------------------------------|
B|-----------------------------------------------------------|
G|--9---9---7---7---6---6---7---7----------------------------|
D|----7---7---7---7---7---7---7---7--------------------------|
A|-----------------------------------------------------------|
E|-----------------------------------------------------------|
PM  . . . . . . . . . . . . . . . .

Intro Guitar 2
E|-----------------------------------------------------------|
B|-----------------------------------------------------------|
G|--9~--7~--6~--7~-------------------------------------------|
D|--x---x---x---x--------------------------------------------|
A|--7~--5~--4~--5~-------------------------------------------|
E|-----------------------------------------------------------|

Verse 1
E|-----------------------------------------------------------|
B|-----------------------------------------------------------|
G|--7-7--777--777----------------------444--444--------------|
D|--7-7--777--777--777--777--444--444--444--444--------------|
A|--5-5--555--555--777--777--444--444--222--222--------------|
E|-----------------555--555--222--222------------------------|
PM        ..  ..   ..   ..   ..   ..   ..   ..

Verse 1.2
E|-----------------------------------------------------------|
B|-----------------------------------------------------------|
G|--4hm5po0--4-0---------------------------------------------|
D|-----------------------------------------------------------|
A|-----------------------------------------------------------|
E|-----------------------------------------------------------|

Chorus
E|-----------------------------------------------------------|
B|-----------------------------------------------------------|
G|--7777-7-7-------------------------------------------------|
D|--7777-7-7---9999-9-9--5555-5-5--5555-5-5------------------|
A|--5555-5-5---9999-9-9--5555-5-5--5555-5-5------------------|
E|-------------7777-7-7--3333-3-3--3333-3-3------------------|

Bridge
E|-----------------------------------------------------------|
B|-----------------------------------------------------------|
G|--7x7-xxx-7x7--xxx-----------------------------------------|
D|--7x7-xxx-7x7--xxx--77777--55555---------------------------|
A|--5x5-xxx-5x5--xxx--77777--55555---------------------------|
E|--------------------55555--33333---------------------------|

The rest is exactly the same chords but different strumming.
Tap to rate this tab
# A B C D E F G H I J K L M N O P Q R S T U V W X Y Z