Song name
# A B C D E F G H I J K L M N O P Q R S T U V W X Y Z

Misc Unsigned Bands - Rhett Holaway - My Tap Tap tab

|-----------------------------------------------17~-----------------------|
|15-19-17--14-17-15--12-15-14-10-10-9-12--14-15---------------------------|
|-------------------------------------------------------------------------|
|-------------------------------------------------------------------------|
|-------------------------------------------------------------------------|
|-------------------------------------------------------------------------|

TAPPING TIME =p

|-------------------------------------------------------------------------|
|19-15-12-19-15-12-19-15-12-19-15-12-19-15-12-19-15-12-19-15-12-19-15-12--|
|-------------------------------------------------------------------------|
|-------------------------------------------------------------------------|
|-------------------------------------------------------------------------|
|-------------------------------------------------------------------------|



|-------------------------------------------------------------------------|
|17-15-12-17-15-12-17-15-12-17-15-12-17-15-12-17-15-12-17-15-12-17-15-12--|
|-------------------------------------------------------------------------|
|-------------------------------------------------------------------------|
|-------------------------------------------------------------------------|
|-------------------------------------------------------------------------|



|-------------------------------------------------------------------------|
|17-14-12-17-14-12-17-14-12-17-14-12-17-14-12-17-14-12-17-14-12-17-14-12--|
|-------------------------------------------------------------------------|
|-------------------------------------------------------------------------|
|-------------------------------------------------------------------------|
|-------------------------------------------------------------------------|



|-------------------------------------------------------------------------|
|15-14-12-15-14-12-15-14-12-15-14-12-15-14-12-15-14-12-15-14-12-15-14-12--|
|-------------------------------------------------------------------------|
|------------------REPEAT-TAPPING PART TO HERE-ONCE-----------------------|
|-------------------------------------------------------------------------|
|-------------------------------------------------------------------------|



|-------------------------------------------------------------------------|
|14-12-10-14-12-10-14-12-10-14-12-10-14-12-10-14-12-10-14-12-10-14-12-10--|
|-------------------------------------------------------------------------|
|-------------------------------------------------------------------------|
|-------------------------------------------------------------------------|
|-------------------------------------------------------------------------|



|-------------------------------------------------------------------------|
|12-10-8-12-10-8-12-10-8-12-10-8-12-10-8-12-10-8-12-10-8-12-10-8--12-14-15|
|-------------------------------------------------------------------------|
|-------------------------------------------------------------------------|
|-------------------------------------------------------------------------|
|-------------------------------------------------------------------------|



|-------------------------------------------------------------------------|
|19-15-12-19-15-12-19-15-12-19-15-12-19-15-12-19-15-12-19-15-12-19-15-12--|
|-------------------------------------------------------------------------|
|-------------------------------------------------------------------------|
|-------------------------------------------------------------------------|
|-------------------------------------------------------------------------|



|-------------------------------------------------------------------------|
|20-15-12-20-15-12-20-15-12-20-15-12-20-15-12-20-15-12-20-15-12-20-15-12--|
|-------------------------------------------------------------------------|
|-------------------------------------------------------------------------|
|-------------------------------------------------------------------------|
|-------------------------------------------------------------------------|



|-------------------------------------------------------------------------|
|22-15-12-22-15-12-22-15-12-22-15-12-22-15-12-22-15-12-22-15-12-22-15-12--|
|-------------------------------------------------------------------------|
|-------------------------------------------------------------------------|
|-------------------------------------------------------------------------|
|-------------------------------------------------------------------------|



|-17!---------------------------------------------------------------------|
|-------------------------------------------------------------------------|
|-------------------------------------------------------------------------|
|-------------7-7-7~------------------------------------------------------|
|-------------7-7-7~------------------------------------------------------|
|-------------5-5-5~------------------------------------------------------|




Sorry If you don't understand my tabs 
But I like it better when I'm the only one understanding it so no one copies me =p




Tap to rate this tab
 
# A B C D E F G H I J K L M N O P Q R S T U V W X Y Z