Song name
# A B C D E F G H I J K L M N O P Q R S T U V W X Y Z

Misc Unsigned Bands - Zeiloss - Manhood Test tab

intro rhythm + lead

|---------------------------------------------2-1-2-1-2-1-2-1-2-1-2-1-2-1-2|
|--------------------------------------------------------------------------|
|----0-----0-----0---------3-----2-----1-212-------------------------------|
|--0-----0-----0---------0-----0-----0-------------------------------------|
|3-----2-----1-----212-0-----0-----0---------------------------------------|
|--------------------------------------------------------------------------|

intro bass

|---------------------------------------------2-1-2-1-2-1-2-1-2-1-2-1-2-1-2|
|----0-----0-----0---------3-----2-----1-212-------------------------------|
|--0-----0-----0---------0-----0-----0-------------------------------------|
|3-----2-----1-----212-0-----0-----0---------------------------------------|
|--------------------------------------------------------------------------|

verse riff lead

|--------------------------14---------------------------14-15-------14-15--|
|-----------------------13-----------16-15-14-13~/15-13----------13--------|
|-----------------------------13-14---------------------------14---------15|
|13-15-17/15-13-14-15-13---------------------------------------------------|
|--------------------------wammy the last note down then up once-----------|
|--------------------------------------------------------------------------|

verse riff rhythm


|--------------------------------------------------------------------------|
|--------------------------------------------------------------------------|
|--------------------------------------------------------------------------|
|--------------------------------------------------------------------------|
|1-1-1-0-1-1-1-3-5-0-0-0-1-0-0-0-3-5-1-1-1-0-1-1-1-3-5-0-0-0-1-0-0-0-3-5---|
|1-1-1-0-1-1-1-3-5-0-0-0-1-0-0-0-3-5-1-1-1-0-1-1-1-3-5-0-0-0-1-0-0-0-3-5---|

verse bass


|--------------------------------------------------------------------------|
|--------------------------------------------------------------------------|
|------------------------------------0-0-0-0-0-0-0-0-0-1-1-1-1-2-2-2-3-4---|
|--------------------------------------------------------------------------|
|0-0-0-0-0-0-0-0-0-1-1-1-1-2-2-2-3-4---------------------------------------|

chorus lead

|00000000223344220022000000002233442200220000000022334422002200000000223344|
|--------------------------------------------------------------------------|
|--------------------------------------------------------------------------|
|--------------------------------------------------------------------------|
|--------------------------------------------------------------------------|
|--------------------------------------------------------------------------|

chorus rhythm

|-------------------------------------------------------------------------0|
|-------------------------------------------------------------------------0|
|-------------------------------------------------------------------------0|
|-------------------------------------------------------------------------0|
|----------------------------2233440022-----------------------------------0|
|0000000022334422002200000000----------0000000022334422002200000000-------0|

chorus bass

|--------------------------------------------------------------------------|
|--------------------------------------------------------------------------|
|--------------------------------------------------------------------------|
|----------------------------223344220022----------------------------------|
|0000000022334422002200000000------------0000000022334422002200000000223344|



Tap to rate this tab
# A B C D E F G H I J K L M N O P Q R S T U V W X Y Z