Song name
# A B C D E F G H I J K L M N O P Q R S T U V W X Y Z

Misc Unsigned Bands - Persona 3 Yumi Kawaruma - Kimi No Kioku Memories Of You tab

Help us improve GuitareTab! Take a short survey!
-------------------------------------------------------------------------------
	                 Kimi no Kioku; Memories of You - Yumi Kawaruma
                                  Persona 3 Soundtrack
-------------------------------------------------------------------------------

Tabbed By: Andrew Leung
Email: RunningDarkNess@hotmail.com

Note: The Verse, In Some Parts Are Sketchy. They Are Improvised, But Sound Alright.
Second Note: The Intro Is Based On The Piano And The Rest From The Voice. Sorry If You 
It To Be The Actual Guitar.

Intro

e|-5-5-7-7-5-5-7-7-5-5-7-7-5-5-7-7-5-5-7-7-5-5-7-7-5-5-7-7-5-5-7-7-----------|
B|---------------------------------------------------------------------------|
G|---------------------------------------------------------------------------|
D|---------------------------------------------------------------------------|
A|---------------------------------------------------------------------------|
E|---------------------------------------------------------------------------|

Verse

e|-7-5-----------------------------------------------------------------------|
B|-------5-5-3---3-5-7-----5-3-2-2-2-3-2-2-----------------------------------|
G|-------------4-------2-4-----------------4---------------------------------|
D|---------------------------------------------------------------------------|
A|---------------------------------------------------------------------------|
E|---------------------------------------------------------------------------|

e|-----7-5---------------5-7-10-9-5------------------------------------------|
B|---3-----5-5-3---3-5-7------------5-5-3-5-7-3-3-4-4------------------------|
G|-4-------------4-----------------------------------------------------------|
D|---------------------------------------------------------------------------|
A|---------------------------------------------------------------------------|
E|---------------------------------------------------------------------------|

e|-7-5----------7-5----------------------------------------------------------|
B|-------5-5-3-------5-5-3---2-2-2/3\2-2-2-2-2-2-2-5-3-----------------------|
G|-------------------------4---------------------------4-2-2-4---------------|
D|---------------------------------------------------------------------------|
A|---------------------------------------------------------------------------|
E|---------------------------------------------------------------------------|

e|-7-5-------7-5-------10-9-5------------------------------------------------|
B|-----5-5-3-----5-5-3--------5-5-3------------------------------------------|
G|---------------------------------------------------------------------------|
D|---------------------------------------------------------------------------|
A|---------------------------------------------------------------------------|
E|---------------------------------------------------------------------------|

Pre-Chorus

e|-----5-5-------------5-5---------------------------------------------------|
B|-3-5-----3-5-5-3-2-3-----3-5-----------------------------------------------|
G|---------------------------------------------------------------------------|
D|---------------------------------------------------------------------------|
A|---------------------------------------------------------------------------|
E|---------------------------------------------------------------------------|

Chorus

Alterations of 5 & 7 [May Differ On Which Chorus You're Playing]

e|-5-5-7-7-5-5-7-7-5-5-7-7-5-5-5-7-7-5-5-7-7-5-------------------------------|
B|---------------------------------------------------------------------------|
G|---------------------------------------------------------------------------|
D|---------------------------------------------------------------------------|
A|---------------------------------------------------------------------------|
E|---------------------------------------------------------------------------|

e|-5-5-5-5-7-5-5-7-7-5-5-7-7-5-5-7-7-5-5-5-7-7-5-----------------------------|
B|---------------------------------------------------------------------------|
G|---------------------------------------------------------------------------|
D|---------------------------------------------------------------------------|
A|---------------------------------------------------------------------------|
E|---------------------------------------------------------------------------|

e|-5-5-7-5-5-5-7-7-----------------------------------------------------------|
B|---------------------------------------------------------------------------|
G|---------------------------------------------------------------------------|
D|---------------------------------------------------------------------------|
A|---------------------------------------------------------------------------|
E|---------------------------------------------------------------------------|

Ending 1

e|---------------5-7-7-10-5--------------------------------------------------|
B|-5-5-3-5-3-5-7-------------------------------------------------------------|
G|---------------------------------------------------------------------------|
D|---------------------------------------------------------------------------|
A|---------------------------------------------------------------------------|
E|---------------------------------------------------------------------------|

Ending 2

e|-----------5---------------------------------------------------------------|
B|-5-5-3-5-7---3-5-5-5-3-----------------------------------------------------|
G|---------------------------------------------------------------------------|
D|---------------------------------------------------------------------------|
A|---------------------------------------------------------------------------|
E|---------------------------------------------------------------------------|

How To Play It:
Intro x1
Verse x1
Pre-Chorus x1
Chorus + Ending 1 x1
Chorus + Ending 2 x1
Intro x2
Verse x1
Pre-Chorus x1
Chorus + Ending 1 x1
Chorus + Ending 2 x1
Intro x2
Pre-Chorus x1
Chorus + Ending 1 x1
Chorus + Ending 2 x1
Chorus + Ending 1 x1
Chorus + Ending 2 x1
Intro x1
Intro x1 [Fading]
Related for Persona 3 Yumi Kawaruma - Kimi No Kioku Memories Of You tab