Song name
# A B C D E F G H I J K L M N O P Q R S T U V W X Y Z

Misc Unsigned Bands - Headnoise - Operation tab

-------------------------------------------------------------------------------
			     OPERATION - HEADNOISE
-------------------------------------------------------------------------------
Tabbed by: Me
Tuning: Standard(that should make you happy)


  Intro/Main Verse/Main Chorus 
e|------------------------|-----------------------|
B|------------------------|-----------------------|
G|------------------------|-----------------------|
D|------------------------|-----------------------|<(the Alternate way
A|----------(x3)--3-2-0---|---------(x3)--3-2-----|  to do that riff.
E|-00002233-------------3-|-00002233----------5-3-|   I find this way 
   ........                 .......                   easier to do)  
(in the verse and chorus there is no palm mute)

  Interlude
e|--------------------------------------------|
B|--------------------------------------------|
G|--------------------------------------------|
D|-101010-9-9-77-22222222------7-10-9-12-10-9-|
A|-101010-9-9-77-22222222-(x2)-7-10-9-12-10-9-|
E|-8-8-8--7-7-55-00000000------5-8--7-10-8--7-|

e|--------------------------------------------|
B|--------------------------------------------|
G|--------------------------------------------|
D|-2~~~-2~-2~--------------2~-----------------|
A|-2~~~-2~-2~-3-2-----(x3)-2~-----------------|
E|-0~~~-0~-0~-----5-3------0~------pick slide-|

 Interlude #2
e|-----------------------------|
B|-----------------------------|
G|-----------------------------|
D|-101010-9-9-77-22222222------|
A|-101010-9-9-77-22222222-(x2)-|
E|-8-8-8--7-7-55-00000000------|

  Interlude #2 continued 
e|--------------------------|
B|--------------------------|
G|--------------------------|
D|-101010-9-9-77-12-10-9-2~-|
A|-101010-9-9-77-12-10-9-2~-|
E|-8-8-8--7-7-55-10-8--7-0~-|

 Continued
e|---------------------------------|
B|---------------------------------|
G|---------------------------------|
D|-12-10-9-2~-------7-10-9-12-10-9-|
A|-12-10-9-2~-(x3)--7-10-9-12-10-9-|
E|-10-8--7-0~-------5-8--7-10-8--7-|

  Interlude #3
e|-----------------------------------------------------------------------|
B|-----------------------------------------------------------------------|
G|-9-----------------------9----------------------9----------------------|
D|-9-(x15)-9-8-2-(all x5)--9-(x12)-9-8-2-(all x4)-9-(x15)-9-8-2-(all x4)-|
A|-7-------9-8-2-----------7-------9-8-2----------7-------9-8-2----------|
E|---------7-6-0-------------------7-6-0------------------7-6-0----------|
                            .
   Outro
e|---------------------------------------------|
B|---------------------------------------------|
G|-------9-8-7---------------------------------|
D|-9-8-7-9-8-7-9-8-7-2~~-----------------------|
A|-9-8-7-7-6-5-9-8-7-2~~---------------3-2-----|
E|-7-6-5-------7-6-5-0~~------00002233-----5-3-|


===============================================================================
Tap to rate this tab
# A B C D E F G H I J K L M N O P Q R S T U V W X Y Z