Song name
# A B C D E F G H I J K L M N O P Q R S T U V W X Y Z

Misc Unsigned Bands - H Kaps - Canto Andaluz tab

O.K. 
This is the music in Tab Form.

|---0---0-----0---0---0-|----0---0---0---0---0---0-|
|---0---0-----0---0---0-|----1---1---1---1---1---1-|
|---1---1-----1---1---1-|----2---2---2---2---2---2-|  x2
|-----------0-----------|----------3-----------3---|
|---------2-----3---2---|--0---3-------0---3-------|
|-0---4-----------------|--------------------------|

|-----------------|       |-----------------|
|-----0-----0-----|       |-----1-----1-----|
|---1-----1-----1-|  x2   |---2-----2-----2-|  x3
|-2-----------2---|       |-3-----------3---|
|-----------------|       |-----------------|
|-------0---------|       |-------0---------|

|---------------|
|----3--1--0----|
|---------------|
|-2--0----------|
|-------3--2--0-|
|---------------|

I
|-0---0-1-0---------------------|
|---4-------1-3---------3-------|
|-----------------1---1-----1---|
|---------------0---------3-----|
|-------------------2-----------|
|-------------0---------------0-|

II
|-0---0-1-----------------------|
|---4-----3-0-1---------1-------|
|-----------------2---2-----2---|
|---------------2---------2-----|
|-------------0-----3---------0-|
|-------------------------------|

III
|-5-0---------------------------|
|-----1-3-2-1-0---------0-------|
|-----------------1---1-----1---|
|---------------2---------------|
|-------------------------2-----|
|-------------0-----4---------0-|

IV
|-0---0-3-2-1-0-----------------|
|---4-------------1-----1-------|
|---------------2-----2-----2---|
|-------------------------2-----|
|-------------0-----3---------0-|
|-------------------------------|

I
|-0---0-1-0---------------------|
|---4-------1-3---------3-------|
|-----------------1---1-----1---|
|---------------0---------3-----|
|-------------------2-----------|
|-------------0---------------0-|

II
|-0---0-1-----------------------|
|---4-----3-0-1---------1-------|
|-----------------2---2-----2---|
|---------------2---------2-----|
|-------------0-----3---------0-|
|-------------------------------|

III
|-5-0---------------------------|
|-----1-3-2-1-0---------0-------|
|-----------------1---1-----1---|
|---------------2---------------|
|-------------------------2-----|
|-------------0-----4---------0-|

|-0---0---0-3-1-0---------------|-----------------|
|---4---4-----------1-----1-----|-----0-----0-----|
|-----------------2-----2-----2-|---1-----1-----1-|
|---------------------------3---|-----------------|
|---------------0-----3---------|-------------2---|
|-------------------------------|-0-----4---------|

|------------------|-------------------|
|-----1-----1------|-----0-----0-------|
|---2-----2-----2--|---1-----1-----1---|
|-------------3----|-------------------|
|-0-----3----------|-------------2---0-|
|------------------|-0-----4-----------|

|------------------|
|----1-----1-------|
|--2-----2-----2---|  x2
|------------3-----|
|------3---------0-|
|------------------|

I
|-0---0-1-0---------------------|
|---4-------1-3---------3-------|
|-----------------1---1-----1---|
|---------------0---------3-----|
|-------------------2-----------|
|-------------0---------------0-|

II
|-0---0-1-----------------------|
|---4-----3-0-1---------1-------|
|-----------------2---2-----2---|
|---------------2---------2-----|
|-------------0-----3---------0-|
|-------------------------------|

III
|-5-0---------------------------|
|-----1-3-2-1-0---------0-------|
|-----------------1---1-----1---|
|---------------2---------------|
|-------------------------2-----|
|-------------0-----4---------0-|

IV
|-0---0-3-2-1-0-----------------|
|---4-------------1-----1-------|
|---------------2-----2-----2---|
|-------------------------2-----|
|-------------0-----3---------0-|
|-------------------------------|

I
|-0---0-1-0---------------------|
|---4-------1-3---------3-------|
|-----------------1---1-----1---|
|---------------0---------3-----|
|-------------------2-----------|
|-------------0---------------0-|

II
|-0---0-1-----------------------|
|---4-----3-0-1---------1-------|
|-----------------2---2-----2---|
|---------------2---------2-----|
|-------------0-----3---------0-|
|-------------------------------|

III
|-5-0---------------------------|
|-----1-3-2-1-0---------0-------|
|-----------------1---1-----1---|
|---------------2---------------|
|-------------------------2-----|
|-------------0-----4---------0-|

|-0---0-1-2-3-4-5----0--|
|---4----------------1--|
|--------------------2--|  Let Chord Ring
|--------------------2--|
|--------------------0--|
|-----------------0-----|
                     Am
Tap to rate this tab
 
# A B C D E F G H I J K L M N O P Q R S T U V W X Y Z