Song name
# A B C D E F G H I J K L M N O P Q R S T U V W X Y Z

Misc Unsigned Bands - Twins In The Making - Marin tab

|-----------------------------------------|
|---------------1-------------------3-----|
|-----0-------0--0-0------0-------2--2-2--|
|---2--2-2---2-2--2-----0--0-0---0-0--0---|
|--2-2--2---3----------2-2--2---0---------|
|-0-------------------3-------------------|


Verse 1:
Em         C         G                D
Dear uncle martin i hope that you are listening
Tear drops are rolling from my eyes and my wet cheeks are glistening
Darkness is coverin up the sky and i think of you in pain
Always thought you'd go back to the way you were again.

Chorus:
Am          Em                B            C
I could not believe what they told me that afternoon
Keep thinkin im dreamin and hopefully im gonna wake up soon

Verse 2:
Em            C            G                   D
Sorry I never came and saw you when you were at nans
Seeing you in so much pain made me feel really sad
I made it all the way to your house without getting car sick
Not that it matters now but thanks for the tip

Solo:

Guitar 1:

|--0-0-0-2-2-2-3-3-5-5-3-3-2-2-0-0--0-0-0-2-2-2-3-3-5-5-7-7-5-5-3-3--|
|--------------------------------------------------------------------|
|--------------------------------------------------------------------|
|--------------------------------------------------------------------|
|--------------------------------------------------------------------|
|--------------------------------------------------------------------|

|--0-2-3-2-3-5-3-2-0---0-2-3-5-7-5--|
|-----------------------------------|
|-----------------------------------|
|-----------------------------------|
|-----------------------------------|
|-----------------------------------|


Chorus:
Am          Em                B            C
I could not believe what they told me that afternoon
Keep thinkin im dreamin and hopefully im gonna wake up soon
I could not believe what they told me that afternoon
Keep thinkin im dreamin and hopefully im gonna wake up soon
Tap to rate this tab
 
# A B C D E F G H I J K L M N O P Q R S T U V W X Y Z