Song name
# A B C D E F G H I J K L M N O P Q R S T U V W X Y Z

Misc Unsigned Bands - Sami Ulrich - Wasting Time chords

Highlighted       Show chord diagrams
This is an original song I wrote.  I hope you like it!!

P.S.  If anyone can tell me what R and R2 are, that'd be awesome!  Thanks!

Std. Tuning

Chords:
D - (000232)
Am7 - (00223)
Em7 - (02203)
R (random chord)- (220030)
G - (320002)
G/C - (032002)
C - (032010)
Cadd9 - (032033)
R2 (another random chord)- (002033)

Intro:
e |-----2-----2-----2-----2-----0-----0-----2-----2---|
B |---3-----3-----0-----0-----3-----3-----3-----3-----|
G |-2-----2-----2-----2-----2-----2-----0-----0-------|  (x2)
D |---------------------------------------------------|
A |---------------------------------------------------|
E |---------------------------------------------------|

Verse:
D Am7 Em7 R
D              Am7                                Em7
You and I were best friends. "Friends to the very end."
                     R
We couldn't be split apart.  Connected heart to heart.
D             Am7                   Em7
But something happens and things go away.
               R
Splitting apart.  Sometimes things have to change.

Chorus:
G                   G/C
You're saying we're swimming in our minds.
C                   Cadd9
Drowning from speculations. We're spending and wasting time.
G                   G/C
And I know this is my last time with you.
C                                 Cadd9 (strum once)
But this'll not be the day that I stop loving you.

e |-----2-----2--|
B |---3-----3----|
G |-2-----2------|
D |--------------|
A |--------------|
E |--------------|

Verse: (same chords)

You're packing up your bags.  We're saying our goodbyes.
Outside I'm smiling wide.  Inside I'm screaming "Why?!"
And something happens.  And things go away.
Splitting apart.  Sometimes things have to change.

Chorus

Bridge: (all chords strummed softly)
G Cadd9 R2 Cadd9
G                                   Cadd9
We're floating around in circles on Cloud 9.
R2                          Cadd9
Wasting time. This wasn't a waste of time.
G                                   Cadd9
We're floating around in circles on Cloud 9.
R2                          Cadd9
Wasting time. This wasn't a waste of time.

Chorus(strum once):
G                   G/C
You're saying we're swimming in our minds.
C                   Cadd9
Drowning from speculations. We're spending and wasting time.

Chorus (strum regularly):
G                   G/C
You're saying we're swimming in our minds.
C                   Cadd9
Drowning from speculations. We're spending and wasting time.
G                   G/C
And I know this is my last time with you.
C                                 Cadd9 (strum once)
But this'll not be the day that I stop loving you.

Outro (x3):

e |------------------------------------------------------------------------|
B |------------------------------------------------------------------------|
G |----0----0-----0-----0-----0-----0-----0----0-----0-----0-----0-----0---|
D |------0----0-----0-----0-----0-----0----0-----0-----0-----0-----0-----0-|
A |-------------2-----2-----3-----3-----2----2-----0-----0-----------------|
E |--3----3----------------------------------------------------3-----3-----|
                    1st & 2nd Ending  3rd Ending
e |--------------|  |--------------|  |-----|
B |--------------|  |--------------|  |-----|
G |----0-----0---|  |---0-----0----|  |-----|
D |------0-----0-|  |-----0-----0--|  |-----|
A |--------------|  |--------------|  |--0--|
E |--2-----2-----|  |-3-----3------|  |--3--|
Tap to rate this tab
# A B C D E F G H I J K L M N O P Q R S T U V W X Y Z