Guitaretab - guitar tabs
Song name
# A B C D E F G H I J K L M N O P Q R S T U V W X Y Z

Misc Unsigned Bands - Alex Kabasser - Sadepisara tab

-------------------------------------------------------------------------------
			     Sadepisara  Alex Kabasser
-------------------------------------------------------------------------------

Album: Dawning
Transcribed by: Curley F
Email: Jacobfschr@aol.com

First tab I have made so I apologize for any errors I may have made.

I suggest listening to the song to get a feel for the timing and how it
sounds since I'm sure the way I tabbed it wont help at all. here is a link
it's a cover but the sound quality is better than the one by Alex himself.
http://www.youtube.com/watch?v=A5xAteetcC4&feature=channel
Tuning - DADGAD
Capo 2

-----------------------------------------|-----------------------------------|
--------0--------------------------------|-------0---------------------------|
---0h2--2-----2-4p2p0---0----------------|-------0---------------------------|
---0--0-------0------h4---2h4-2h4p2p0----|-0---4--------4p2-2-2h4p20-----0---|
---0------0-0-0---------------0------h4/5|-0h2--------2-2---0--------4/5---0-|
---0------0-0-0--------------------------|---------x-------------------------|
   s      s               t   s            s       s        s
                                         (repeat first 2 bars 4x)

--------0---------4h5p4p0---0------|-------------------------------|-------0--|
--------0----------------h5---0-2-0|-------0----0-----0-x-0--------|-------0--|
------0----------------------------|-------2----2/7---7-x-0h6p0----|-----0----|
----------------0------------------|-----0------0---------------7p0|----------|
--0h5-------0h5-5------------------|-------------------------------|-0h5------|
--0h5-----x-0h5-5------------------|-0h4-----x-4/-9-x--------------|-0h5------|
                                                                     s

----------4h5p4p0---0------|-----7-----5-----------4p0----|-------0-----------|
-----------------h5---0-2-0|-----5-----2---0h2p0-------0--|-------0-----------|
---------------------------|-----6-----0---------0-------0|-----0-------------|
--------0------------------|---7-------5------------------|---------------0---|
----0h5-5------------------|-0-----x-0---x----------------|-0h5-------0h5-5---|
--x-0h5-5------------------|-0-----x-----x----------------|-0h5-----x-0h5-5---|
        s                    s

-4h5p4p0---0------|-------------------------------0|------0---------0|--------|
--------h5---0-2-0|-------0-----0-----0-----7h0----|------0---------0|--------|
------------------|-------2-----2/7---0-----9------|-0h2--2-----0----|--------|
------------------|-----0-------0-----0---7--------|-0h2--------4h4--|--------|
------------------|-------------------0-0-------x--|------------5----|-0-0----|
------------------|-0h4-----x-4/--9-x-----------x--|----2---5-5------|--------|


----------|---------0-----------0--|-------0-----------0h4p0|---------0-------|
-2/7-7-6--|-----4/5---5-----5-----5|-----5---5-----5/7------|-----4/5---5-----|
-2/7-7-7--|-----------------0------|-----0------------------|-----------------|
----------|-----4-----------4/5----|-----5---------5/7------|-----4-----------|
---------0|-2-2---------0-0--------|-----------0-0----------|-2-2-------------|
----------|------------------------|-5-5--------------------|-----------------|


---------0--|-------0-----------0h4p0|---------0-----------0--|-------0-------|
-----5-----5|-----5---5-----5/7------|-----4/5---5-----5-----5|-----5---5-----|
-----0------|-----0------------------|------------------------|---------------|
-----4/5----|-----5---------5/7------|-----4-----------4/5----|-----5---------|
-0-0--------|-----------0-0----------|------------------------|---------------|
------------|-5-5--------------------|-0-0---------2-2--------|-5-5-----------|


---------0h4p0|---------0-----------0--|-------0----|--------------------|----|
-----5/7------|-----4/5---5-----5-----5|-----5---5--|-5/7---7/9---9/10---|----|
--------------|------------------------|------------|--------------------|----|
-----5/7------|-----4-----------4/5----|-----5------|-5/7---7/9---9------|----|
-0-0----------|------------------------|------------|-0---0-----0--------|----|
--------------|-0-0---------2-2--------|-5-5--------|-------------------0|----|
                                          2/4 time    4/4 time

----------------|--------------------------12^|-------------------------------|
-10/12-12-x---12|-------------12^----------12^|-------------------------7^----|
----------x-----|-------12-11------------9----|-----7--7^---5^----------------|
--9/11-11-x---11|-------12--------------11----|-----9----------9^----7^-------|
------------0---|-----------------------------|-----------0-------------------|
----------------|-12-12-----------11-11-------|-9-9---------------7^----------|


---|-------0^-7^--------|--------------------------|--------------------12^|--|
---|----------7^------7^|---------------------7^---|----------12^-------12^|--|
-7^|-----4^---7^--------|7^--7^---5^-------------7^|----12-11---------9----|--|
---|---------------7^---|------------9^----7^------|----12-----------11----|--|
---|--------------------|-------0------------------|-----------------------|--|
---|-5-5---------4------|--5------------7^---------|-12-12--------11-11----|--|
      (16)(12) A.H.
[ Tab from: http://www.guitaretab.com/m/misc-unsigned-bands/188797.html ]
---------------------------|-------0^-7^--------|-----------------------|----|
----------------------7^---|----------7^------7^|------------------7^---|----|
---7-7^---5^-------------7^|-----4^---7^--------|-7^---5^-------------7^|-0--|
---9---------9^----7^------|---------------7^---|---------9^----7^------|-0--|
--------0------------------|--------------------|----0------------------|-0--|
-9-9------------7^---------|-5-5---------4------|------------7^---------|-0--|
                              (16)(12) A.H.          Repeat to beginning  s

-------5---4p0---2h0-------0--|-----------------------------|-------5---4p0---|
---------------0-----0-2-4---0|----------0-0h2p0h4p0h5p0h4p0|-----------------|
-----0------------------------|--------0--------------------|-----0-----------|
------------------------------|------0----------------------|-----------------|
---------x--------------------|------------------0----------|---------x-------|
-0h2-----x-------4------------|-5---------------------------|-0h2-----x-------|

---2p0-------0---7|---------5p0---4p0------------|-------5---4p0---2p0--------|
-0-----0-2-4---0--|-----5------------h5p0h7p0h5p0|---------------0-----0-2-4--|
------------------|---0---x-----0----------------|-----0----------------------|
------------------|-------x----------------------|----------------------------|
------------------|-------x----------------------|---------x------------------|
---4--------------|-5----------------------------|-0h2-----x-------4----------|


-0--|----------------------------|-------5---4p0---2p0-------0---7|-----------|
---0|---------0-0h2p0h4p0h5p0h4p0|---------------0-----0-2-4---0--|-----5-----|
----|-------0--------------------|-----0--------------------------|---0---x---|
----|-----0----------------------|--------------------------------|-------x---|
----|-----------------0----------|---------x----------------------|-------x---|
----|-5--------------------------|-0h2-----x-------4--------------|-5---------|


-5p0---4p0------------|--------------------------------|----------------------|
-------0--h5p0h7p0h5p0h7p0h9p0h7p0h9p0h10p0h9p0h7p0h9p0h7p0h5p0h7p0p5p0-0h4h5-|
-----0-0--------------|--------------------------------|----------------0-----|
-------0--------------|--------------------------------|----------------------|
-------0--------------|--------------------------------|----------------------|
----------------------|--------------------------------|----------------------|
                           X       XX       X       X       X   X  (X's =

--0h4p0----|-------0h4p0-----------0h4p0----|-------0h4p0-----------0h3p0-----|
--------5p0|-0h4h5-------5p0-0h4h5-------5p0|-0h4h5-------5p0-0h3h5-----------|
-----------|-0------------------------------|---------------------------------|
-----------|-----------------4--------------|-4---------------3---------------|
-----------|--------------------------------|---------------------------------|
-----------|--------------------------------|---------------------------------|
 percussive playing on lower right hand side of guitar)

----|------0h3p0-----------0h2p0----|-------0h2p0-----------0h2p0----|--------|
-5p0|0h3h5-------5p0-0h2h4-------4p0|-0h2h4-------4p0-0h2h4-------4p0|-0h2h4--|
----|-------------------------------|-----------------0--------------|-0------|
----|3---------------2--------------|-2------------------------------|--------|
----|-------------------------------|--------------------------------|--------|
----|-------------------------------|--------------------------------|--------|


-0h2p0------------0h2p0----|-------0h2p0-----------0h3p0----|-------0h3p0-----|
-------4p0--0h2h4-------4p0|-0h2h4-------4p0-0h3h5-------5p0|-0h3h5-----------|
---------------------------|--------------------------------|-----------------|
------------4--------------|-4---------------3--------------|-3---------------|
---------------------------|--------------------------------|-----------------|
---------------------------|--------------------------------|-----------------|


-----------0h3p0----|-------0h3p0-----------0h2p0----|-------0h2p0------------|
-5p0-0h3h5-------5p0|-0h3h5-------5p0-0h2h4-------4p0|-0h2h4-------4p0-0h2h4--|
--------------------|--------------------------------|------------------------|
-----3--------------|-3---------------2--------------|-2---------------2------|
--------------------|--------------------------------|------------------------|
--------------------|--------------------------------|------------------------|
                                                                       Rit...

-0h2h4p2p0---|0---------0-------|-0-------------------------------------------|
-----------4p|--2p0---------4---|-0-------------------------------------------|
-------------|------0-----------|-2-------------------------------------------|
-------------|--------4---2-----|-4-------------------------------------------|
-------------|------------------|-0-------------------------------------------|
-------------|-----------------x|-0-------------------------------------------|
                               (x = percussive tap on body above hole)

| /  slide up
| \  slide down
| h  hammer-on
| p  pull-off
| ~  vibrato
| ^  harmonic
| x  Mute note
| S slap with thumb
| t tap with left fingers
| A.H. artificial harmonic

===============================================================================
Related for Alex Kabasser - Sadepisara tab