Song name
# A B C D E F G H I J K L M N O P Q R S T U V W X Y Z

Misc Unsigned Bands - 14th Union - Black Spot tab

-------------------------------------------------------------------------------
			     BLACK SPOT - 14th Union
-------------------------------------------------------------------------------

Tuning: Standard


INTRO
e|-----|-------|-----|-----||-----|-------|-----|-----|----------------------|
B|-----|-------|-----|-----||-----|-------|-----|-----|----------------------|
G|-----|-------|-----|-----||-----|-------|-----|-----|----------------------|
D|--9--|--(9)--|--7--|--4--||--9--|--(9)--|--7--|--4--|----------------------|
A|--9--|--(9)--|--7--|--4--||--9--|--(9)--|--7--|--4--|----------------------|
E|--7--|--(7)--|--5--|--2--||--7--|--(7)--|--5--|--2--|----------------------|

PRE-VERSE I
e|---------------------------------------------------------------------------|
B|---------------------------------------------------------------------------|
G|---------------------------------------------------------------------------|
D|-999-999-999-999-999-999-999-999-997-777-777-777-774-444-444-444-----------|
A|-999-999-999-999-999-999-999-999-997-777-777-777-774-444-444-444-----------|
E|-777-777-777-777-777-777-777-777-775-555-555-555-552-222-222-222-----------|   x2


VERSE I
  PM>>>>>>>>>>>>>>>>>>>>>>>>>>>>>>>>>>>>>>>>>>>>>>>>>>>>>>>>>>>>>>>>>
e|---------------------------------------------------------------------------|
B|---------------------------------------------------------------------------|
G|---------------------------------------------------------------------------|
D|-9-9-9-9-9-9-9-9-9-9-9-9-9-9-9-9-7-7-7-7-7-7-7-7-4-4-4-4-4-4-4-4-----------|
A|-9-9-9-9-9-9-9-9-9-9-9-9-9-9-9-9-7-7-7-7-7-7-7-7-4-4-4-4-4-4-4-4-----------|
E|-7-7-7-7-7-7-7-7-7-7-7-7-7-7-7-7-5-5-5-5-5-5-5-5-2-2-2-2-2-2-2-2-----------|   x4

CHORUS I
(This is the bass part that you can double up with)
e|---------------------------------------------------------------------------|
B|---------------------------------------------------------------------------|
G|---------------------------------------------------------------------------|
D|-----------0-------------2-------------0-----2---0-------------------------|
A|-2-2-2-2-2-----2-2-2-2-2-----2-2-2-2-2-----2---2---------------------------|
E|---------------------------------------------------------------------------|   x2

PRE-VERSE II
e|---------------------------------------------------------------------------|
B|---------------------------------------------------------------------------|
G|---------------------------------------------------------------------------|
D|-999-999-999-999-999-999-999-999-997-777-777-777-774-444-444-444-----------|
A|-999-999-999-999-999-999-999-999-997-777-777-777-774-444-444-444-----------|
E|-777-777-777-777-777-777-777-777-775-555-555-555-552-222-222-222-----------|   x2

VERSE II
  PM>>>>>>>>>>>>>>>>>>>>>>>>>>>>>>>>>>>>>>>>>>>>>>>>>>>>>>>>>>>>>>>>>
e|---------------------------------------------------------------------------|
B|---------------------------------------------------------------------------|
G|---------------------------------------------------------------------------|
D|-9-9-9-9-9-9-9-9-9-9-9-9-9-9-9-9-7-7-7-7-7-7-7-7-4-4-4-4-4-4-4-4-----------|
A|-9-9-9-9-9-9-9-9-9-9-9-9-9-9-9-9-7-7-7-7-7-7-7-7-4-4-4-4-4-4-4-4-----------|
E|-7-7-7-7-7-7-7-7-7-7-7-7-7-7-7-7-5-5-5-5-5-5-5-5-2-2-2-2-2-2-2-2-----------|   x4

CHORUS II
(This is the bass part that you can double up with)
e|---------------------------------------------------------------------------|
B|---------------------------------------------------------------------------|
G|---------------------------------------------------------------------------|
D|-----------0-------------2-------------0-----2---0-------------------------|
A|-2-2-2-2-2-----2-2-2-2-2-----2-2-2-2-2-----2---2---------------------------|
E|---------------------------------------------------------------------------|   x2

PRE-VERSE III
e|---------------------------------------------------------------------------|
B|---------------------------------------------------------------------------|
G|---------------------------------------------------------------------------|
D|-999-999-999-999-999-999-999-999-997-777-777-777-774-444-444-444-----------|
A|-999-999-999-999-999-999-999-999-997-777-777-777-774-444-444-444-----------|
E|-777-777-777-777-777-777-777-777-775-555-555-555-552-222-222-222-----------|   x2


VERSE III
  PM>>>>>>>>>>>>>>>>>>>>>>>>>>>>>>>>>>>>>>>>>>>>>>>>>>>>>>>>>>>>>>>>>
e|---------------------------------------------------------------------------|
B|---------------------------------------------------------------------------|
G|---------------------------------------------------------------------------|
D|-9-9-9-9-9-9-9-9-9-9-9-9-9-9-9-9-7-7-7-7-7-7-7-7-4-4-4-4-4-4-4-4-----------|
A|-9-9-9-9-9-9-9-9-9-9-9-9-9-9-9-9-7-7-7-7-7-7-7-7-4-4-4-4-4-4-4-4-----------|
E|-7-7-7-7-7-7-7-7-7-7-7-7-7-7-7-7-5-5-5-5-5-5-5-5-2-2-2-2-2-2-2-2-----------|   x4

CHORUS III
(This is the bass part that you can double up with)
e|---------------------------------------------------------------------------|
B|---------------------------------------------------------------------------|
G|---------------------------------------------------------------------------|
D|-----------0-------------2-------------0-----2---0-------------------------|
A|-2-2-2-2-2-----2-2-2-2-2-----2-2-2-2-2-----2---2---------------------------|
E|---------------------------------------------------------------------------|   x2

GTR SOLO
e|----------12^-12^-12^-12^-12^r---17^-17-17^-17^-17-17^-15-15-15-15^--------|
B|--12^-12^------------------------------------------------------------------|
G|---------------------------------------------------------------------------|
D|---------------------------------------------------------------------------|
A|---------------------------------------------------------------------------|
E|---------------------------------------------------------------------------|          
Hold bend on 12th fret.

e|--------12---12---12---12---12------15--15--------17--17--------19--19--19^|
B|-12^-12^--12^--12^--12^--12^--12^-15--15--15s17-17--17--17s19-19--19--19---|
G|---------------------------------------------------------------------------|
D|---------------------------------------------------------------------------|
A|---------------------------------------------------------------------------|
E|---------------------------------------------------------------------------|

OUTRO
  PM>>>>>>>>>>>>>>>>>>>>>>>>>>>>>>>>>>>>>>>>>>>>>>>>>>>>>>>>>>>>>>>>>
e|---------------------------------------------------------------------------|
B|---------------------------------------------------------------------------|
G|---------------------------------------------------------------------------|
D|-9-9-9-9-9-9-9-9-9-9-9-9-9-9-9-9-7-7-7-7-7-7-7-7-4-4-4-4-4-4-4-4-----------|
A|-9-9-9-9-9-9-9-9-9-9-9-9-9-9-9-9-7-7-7-7-7-7-7-7-4-4-4-4-4-4-4-4-----------|
E|-7-7-7-7-7-7-7-7-7-7-7-7-7-7-7-7-5-5-5-5-5-5-5-5-2-2-2-2-2-2-2-2-----------|   x2


OUTRO SOLO

e|---|---------------------------------------------|-------------------------|
B|---|--15-13--------------------------------------|-------------------------|
G|---|--------14-12--------------10-12br-10--------|-------------------------|
D|-9-|--------------15-12--10h12------------12~~~--|-9\----------------------|
A|-9-|---------------------------------------------|-9\----------------------|
E|-7-|---------------------------------------------|-7\----------------------|   x2





| /  slide up
| \  slide down
| h  hammer-on
| p  pull-off
| ~  vibrato
| +  harmonic
| x  Mute note
===============================================================================
Tap to rate this tab
 
# A B C D E F G H I J K L M N O P Q R S T U V W X Y Z