Song name
# A B C D E F G H I J K L M N O P Q R S T U V W X Y Z

Misc Unsigned Bands - Day In Day Out - Ready For Takeoff tab

-------------------------------------------------------------------------------
		        Day In Day Out - Ready For Takeoff
-------------------------------------------------------------------------------



Tuning:standard of course


  Intro, verse (palm mute throughout)
e|-------------------------------------------------------------------|
B|-------------------------------------------------------------------|
G|-9-9-9-9-9-9-9-9-8-8-8-8-8-8-8-8-6-6-6-6-6-6-6-6-------------------|
D|-9-9-9-9-9-9-9-9-9-9-9-9-9-9-9-9-6-6-6-6-6-6-6-6-7-7-7-7-7-7-9-9---|
A|-7-7-7-7-7-7-7-7-6-6-6-6-6-6-6-6-4-4-4-4-4-4-4-4-7-7-7-7-7-7-9-9---|
E|-------------------------------------------------5-5-5-5-5-5-7-7---|
 | 
e|-------------------------------------------------------------------|
B|---------------------------------10101010101010101010101010101010--|
G|-9-9-9-9-9-9-9-9-8-8-8-8-8-8-8-8-9-9-9-9-9-9-9-9-9-9-9-9-9-9-9-9---|
D|-9-9-9-9-9-9-9-9-9-9-9-9-9-9-9-9-7-7-7-7-7-7-7-7-7-7-7-7-7-7-7-7---|
A|-7-7-7-7-7-7-7-7-6-6-6-6-6-6-6-6-----------------------------------|
E|-------------------------------------------------------------------|

  
  End of Verse
e|-----------------------------------------------|
B|-----------------------------------------------|
G|-9-9-9-9-9-9-9-9-8-8-8-8-8-8-8-8-6--6--6-------|
D|-9-9-9-9-9-9-9-9-9-9-9-9-9-9-9-9-6--6--6--7----|
A|-7-7-7-7-7-7-7-7-6-6-6-6-6-6-6-6-4--4--4--7----|
E|------------------------------------------5----|
 | 
e|-----------------------------------------------|
B|---------------------------------10-10-10------|
G|-9-9-9-9-9-9-9-9-8-8-8-8-8-8-8-8-9--9--9-------|
D|-9-9-9-9-9-9-9-9-9-9-9-9-9-9-9-9-7--7--7-------|
A|-7-7-7-7-7-7-7-7-6-6-6-6-6-6-6-6---------------|
E|-----------------------------------------------|


   
  Prechorus 
e|-----------------------------------------|
B|-----------------------------------------|
G|-9-9-9-9-9-9-9-9-9-9-9-8-8-8-9-9---------|
D|-9-9-9-9-9-9-9-9-9-9-9-9-9-9-9-9---------|
A|-7-7-7-7-7-7-7-7-7-7-7-6-6-6-7-7---------|
E|-----------------------------------------|
 |
e|-----------------------------------------|
B|-----------------9-9-9-7-7-7-9-9---------|
G|-9-9-9-9-9-9-9-9-9-9-9-8-8-8-9-9---------|
D|-9-9-9-9-9-9-9-9-------------------------|
A|-----------------------------------------|
E|-----------------------------------------|
        
    
  End of Prechorus  
e|-----------------------------------------|
B|-----------------------------------------|
G|-9-9-9-9-9-9-9-9-9-9-9-8-8-8--9--9--9----|
D|-9-9-9-9-9-9-9-9-9-9-9-9-9-9--9--9--9----|
A|-7-7-7-7-7-7-7-7-7-7-7-6-6-6--7--7--7----|
E|-----------------------------------------|
 |
e|-----------------------------------------|
B|-----------------9-9-9-7-7-7--9--9--9----|
G|-9-9-9-9-9-9-9-9-9-9-9-8-8-8--9--9--9----|
D|-9-9-9-9-9-9-9-9-------------------------|
A|-----------------------------------------|
E|-----------------------------------------|


  Chorus
e|-------------------------------12------------------------------|
B|---------10------9------7------x-(x16)-------------------------|
G|-9-------x-(x16)-x-(x8)-x-(x8)-9-------------------------------|
D|-x-(x16)-7-------6------4--------------------------------------|
A|-7-------------------------------------------------------------|
E|---------------------------------------------------------------|
 |                                          
e|---------------------------------------------------------------|
B|---------------------------------------------------------------|
G|-9-------2-------4------6--------------------------------------|
D|-9-(x16)-2-(x16)-4-(x8)-6-(x8)-7-7-7-7-7-7-7-7-7-7-7-7-7-7-7-7-|
A|-7-------0-------2------4------7-7-7-7-7-7-7-7-7-7-7-7-7-7-7-7-|
E|-------------------------------5-5-5-5-5-5-5-5-5-5-5-5-5-5-5-5-|
                                 . . . . . . . . . . . . . . . . 
                                
e|-------------------------------12------------------------------|
B|---------10------9------7------x-(x16)-------------------------|
G|-9-------x-(x16)-x-(x8)-x-(x8)-9-------------------------------|
D|-x-(x16)-7-------6------4--------------------------------------|
A|-7-------------------------------------------------------------|
E|---------------------------------------------------------------|
 |                                          
e|---------------------------------------------------------------|
B|---------------------------------------------------------------|
G|-9-------2-------4------6--------------------------------------|
D|-9-(x16)-2-(x16)-4-(x8)-6-(x8)-7-7-7-7-7-7-7-7-7-7-7-7-7-7-7-7-|
A|-7-------0-------2------4------7-7-7-7-7-7-7-7-7-7-7-7-7-7-7-7-|
E|-------------------------------5-5-5-5-5-5-5-5-5-5-5-5-5-5-5-5-|
                                 . . . . . . . . 

  Fill (Post Chorus)
e|-------------------------------------------------------------------|
B|-9-9-9-9-9-9-9-9-7-7-7-7-7-7-7-7-5-5-5-5-5-5-5-5-4-4-4-2-2-2-2-2/--|
G|-9-9-9-9-9-9-9-9-8-8-8-8-8-8-8-8-6-6-6-6-6-6-6-6-4-4-4-2-2-2-2-2/--|
D|-------------------------------------------------------------------|
A|-------------------------------------------------------------------|
E|-------------------------------------------------------------------|
 |                                                                      x2
e|-------------------------------------------------------------------|
B|-------------------------------------------------------------------|
G|-9-9-9-9-9-9-9-9-8-8-8-8-8-8-8-8-6-6-6-6-6-6-6-6-------------------|
D|-9-9-9-9-9-9-9-9-9-9-9-9-9-9-9-9-6-6-6-6-6-6-6-6-7-7-7-7-7-7-7-7---|
A|-7-7-7-7-7-7-7-7-6-6-6-6-6-6-6-6-4-4-4-4-4-4-4-4-7-7-7-7-7-7-7-7---|
E|-------------------------------------------------5-5-5-5-5-5-5-5---|
   . . . . . . . . . . . . . . . . . . . . . . . . . . . . . . . .


  Verse 2
e|-0~----------------------------------------------------------------|
B|-5~----------------------------------------------------------------|
G|-4~------------------------------6-6-6-6-6-6-6-6-------------------|
D|---------------------------------6-6-6-6-6-6-6-6-7-7-7-7-7-7-9-9---|
A|---------------------------------4-4-4-4-4-4-4-4-7-7-7-7-7-7-9-9---|
E|-------------------------------------------------5-5-5-5-5-5-7-7---|
 |                                 . . . . . . . . . . . . . . . . 
e|-------------------------------------------------------------------|
B|---------------------------------10101010101010101010101010101010--|
G|-9-9-9-9-9-9-9-9-8-8-8-8-8-8-8-8-9-9-9-9-9-9-9-9-9-9-9-9-9-9-9-9---|
D|-9-9-9-9-9-9-9-9-9-9-9-9-9-9-9-9-7-7-7-7-7-7-7-7-7-7-7-7-7-7-7-7---|
A|-7-7-7-7-7-7-7-7-6-6-6-6-6-6-6-6-----------------------------------|
E|-------------------------------------------------------------------| 
   . . . . . . . . . . . . . . . . . . . . . . . . . . . . . . . . 
   

e|-------------------------------------------------------------------|
B|-------------------------------------------------------------------|
G|-9-9-9-9-9-9-9-9-8-8-8-8-8-8-8-8-6-6-6-6-6-6-6-6-------------------|
D|-9-9-9-9-9-9-9-9-9-9-9-9-9-9-9-9-6-6-6-6-6-6-6-6-7-7-7-7-7-7-9-9---|
A|-7-7-7-7-7-7-7-7-6-6-6-6-6-6-6-6-4-4-4-4-4-4-4-4-7-7-7-7-7-7-9-9---|
E|-------------------------------------------------5-5-5-5-5-5-7-7---|
 | 
e|-------------------------------------------------------------------|
B|---------------------------------10101010101010101010101010101010--|
G|-9-9-9-9-9-9-9-9-8-8-8-8-8-8-8-8-9-9-9-9-9-9-9-9-9-9-9-9-9-9-9-9---|
D|-9-9-9-9-9-9-9-9-9-9-9-9-9-9-9-9-7-7-7-7-7-7-7-7-7-7-7-7-7-7-7-7---|
A|-7-7-7-7-7-7-7-7-6-6-6-6-6-6-6-6-----------------------------------|
E|-------------------------------------------------------------------|

   
  Prechorus 2
e|-----------------------------------------|
B|-----------------------------------------|
G|-9-9-9-9-9-9-9-9-9-9-9-8-8-8-9-9---------|
D|-9-9-9-9-9-9-9-9-9-9-9-9-9-9-9-9---------|
A|-7-7-7-7-7-7-7-7-7-7-7-6-6-6-7-7---------|
E|-----------------------------------------|
 |
e|-----------------------------------------|
B|-----------------9-9-9-7-7-7-9-9---------|
G|-9-9-9-9-9-9-9-9-9-9-9-8-8-8-9-9---------|
D|-9-9-9-9-9-9-9-9-------------------------|
A|-----------------------------------------|
E|-----------------------------------------|
        
    
  End of Prechorus 2 
e|-----------------------------------------|
B|-----------------------------------------|
G|-9-9-9-9-9-9-9-9-9-9-9-8-8-8--9--9--9----|
D|-9-9-9-9-9-9-9-9-9-9-9-9-9-9--9--9--9----|
A|-7-7-7-7-7-7-7-7-7-7-7-6-6-6--7--7--7----|
E|-----------------------------------------|
 |
e|-----------------------------------------|
B|-----------------9-9-9-7-7-7--9--9--9----|
G|-9-9-9-9-9-9-9-9-9-9-9-8-8-8--9--9--9----|
D|-9-9-9-9-9-9-9-9-------------------------|
A|-----------------------------------------|
E|-----------------------------------------|


  Chorus 2
e|-------------------------------12------------------------------|
B|---------10------9------7------x-(x16)-------------------------|
G|-9-------x-(x16)-x-(x8)-x-(x8)-9-------------------------------|
D|-x-(x16)-7-------6------4--------------------------------------|
A|-7-------------------------------------------------------------|
E|---------------------------------------------------------------|
 |                                          
e|---------------------------------------------------------------|
B|---------------------------------------------------------------|
G|-9-------2-------4------6--------------------------------------|
D|-9-(x16)-2-(x16)-4-(x8)-6-(x8)-7-7-7-7-7-7-7-7-7-7-7-7-7-7-7-7-|
A|-7-------0-------2------4------7-7-7-7-7-7-7-7-7-7-7-7-7-7-7-7-|
E|-------------------------------5-5-5-5-5-5-5-5-5-5-5-5-5-5-5-5-|
                                 . . . . . . . . . . . . . . . . 
                                
e|-------------------------------12------------------------------|
B|---------10------9------7------x-(x16)-------------------------|
G|-9-------x-(x16)-x-(x8)-x-(x8)-9-------------------------------|
D|-x-(x16)-7-------6------4--------------------------------------|
A|-7-------------------------------------------------------------|
E|---------------------------------------------------------------|
 |                                          
e|---------------------------------------------------------------|
B|---------------------------------------------------------------|
G|-9-------2-------4------6--------------------------------------|
D|-9-(x16)-2-(x16)-4-(x8)-6-(x8)-7-7-7-7-7-7-7-7-7-7-7-7-7-7-7-7-|
A|-7-------0-------2------4------7-7-7-7-7-7-7-7-7-7-7-7-7-7-7-7-|
E|-------------------------------5-5-5-5-5-5-5-5-5-5-5-5-5-5-5-5-|
                                 . . . . . . . . 
 
  Bridge
e|1st-time|------------------------------------------------------------------|
B|--------|-12--12--12--12--12--12--12--12--9---9---9---9---7---7---7---7----|
G|--------|---9---9---9---9---8---8---8---8---6---6---6---6---8---8---8---8--|
D|--------|------------------------------------------------------------------|
A|--------|------------------------------------------------------------------|
E|--------|------------------------------------------------------------------|
 |                                                                             x2
e|1st-time|------------------------------------------------------------------|
B|--------|------------------------------------------------------------------|
G|-9~--8~-|---9---9---9---9---8---8---8---8---6---6---6---6---8---8---8---8--|
D|--------|-9---9---9---9---9---9---9---9---7---7---7---7---9---9---9---9----|
A|--------|------------------------------------------------------------------|
E|--------|------------------------------------------------------------------|


  End of Bridge
e|-----------------------------------|-build-up--|
B|--12--12-----12--12-----9---9------|-----------| 
G|--9---9------8---8------6---6------|--9--9~----|
D|-----------------------------------|--9--9~----|
A|-----------------------------------|--7--7~----|
E|-----------------------------------|-----------|
 |                                      .
e|-----------------------------------|-build-up--|
B|-----------------------------------|-----------|
G|--9--9--9----8--8--8----6--6--6----|--9--9~----|
D|--9--9--9----9--9--9----7--7--7----|--9--9~----|
A|-(7)(7)(7)--(6)(6)(6)--(4)(4)(4)---|--7--7~----|
E|-----------------------------------|-----------|
                                        .

  Post-Bridge Chorus
e|-----------------------12------------------------------|
B|-10------9------7------x-(x16)-------------------------|
G|-x-(x16)-x-(x8)-x-(x8)-9-------------------------------|
D|-7-------6------4--------------------------------------|
A|-------------------------------------------------------|
E|-------------------------------------------------------|
 |                                          
e|-------------------------------------------------------|
B|-------------------------------------------------------|
G|-2-------4------6--------------------------------------|
D|-2-(x16)-4-(x8)-6-(x8)-7-7-7-7-7-7-7-7-7-7-7-7-7-7-7-7-|
A|-0-------2------4------7-7-7-7-7-7-7-7-7-7-7-7-7-7-7-7-|
E|-----------------------5-5-5-5-5-5-5-5-5-5-5-5-5-5-5-5-|
                                 . . . . . . . . . . . . . . . . 
                                
e|-------------------------------12------------------------------|
B|---------10------9------7------x-(x16)-------------------------|
G|-9-------x-(x16)-x-(x8)-x-(x8)-9-------------------------------|
D|-x-(x16)-7-------6------4--------------------------------------|
A|-7-------------------------------------------------------------|
E|---------------------------------------------------------------|
 |                                          
e|---------------------------------------------------------------|
B|---------------------------------------------------------------|
G|-9-------2-------4------6--------------------------------------|
D|-9-(x16)-2-(x16)-4-(x8)-6-(x8)-7-7-7-7-7-7-7-7-7-7-7-7-7-7-7-7-|
A|-7-------0-------2------4------7-7-7-7-7-7-7-7-7-7-7-7-7-7-7-7-|
E|-------------------------------5-5-5-5-5-5-5-5-5-5-5-5-5-5-5-5-|
                                 . . . . . . . . 
                                 
  Outro Chorus                               
e|-------------------------------12------------------------------|
B|---------10------9------7------x-(x16)-------------------------|
G|-9-------x-(x16)-x-(x8)-x-(x8)-9-------------------------------|
D|-x-(x16)-7-------6------4--------------------------------------|
A|-7-------------------------------------------------------------|
E|---------------------------------------------------------------|
 |                                          
e|---------------------------------------------------------------|
B|---------------------------------------------------------------|
G|-9-------2-------4------6--------------------------------------|
D|-9-(x16)-2-(x16)-4-(x8)-6-(x8)-7-7-7-7-7-7-7-7-7-7-7-7-7-7-7-7-|
A|-7-------0-------2------4------7-7-7-7-7-7-7-7-7-7-7-7-7-7-7-7-|
E|-------------------------------5-5-5-5-5-5-5-5-5-5-5-5-5-5-5-5-|
                                 . . . . . . . . . . . . . . . . 
                                
e|-------------------------------12------------------------------|
B|---------10------9------7------x-(x16)-------------------------|
G|-9-------x-(x16)-x-(x8)-x-(x8)-9-------------------------------|
D|-x-(x16)-7-------6------4--------------------------------------|
A|-7-------------------------------------------------------------|
E|---------------------------------------------------------------|
 |                                          
e|---------------------------------------------------------------|
B|---------------------------------------------------------------|
G|-9-------2-------4------6--------------------------------------|
D|-9-(x16)-2-(x16)-4-(x8)-6-(x8)-7-7-7-7-7-7-7-7-7-7-7-7-7-7-7-7-|
A|-7-------0-------2------4------7-7-7-7-7-7-7-7-7-7-7-7-7-7-7-7-|
E|-------------------------------5-5-5-5-5-5-5-5-5-5-5-5-5-5-5-5-|


| /  slide up
| \  slide down
| h  hammer-on
| p  pull-off
| ~  vibrato
| +  harmonic
| x  Mute note



===============================================================================
Tap to rate this tab
# A B C D E F G H I J K L M N O P Q R S T U V W X Y Z