Song name
# A B C D E F G H I J K L M N O P Q R S T U V W X Y Z

Misc Unsigned Bands - The Mechanics - Jerusalem tab

Help us improve GuitareTab! Take a short survey!
The intro to Jerusalem, a song on the Scope Project.

(/) Slide Up (\) Slide Down (h) Hammer On (p) Pull Off (b) Bend (r) Release (v) Vibrato


>--Dm-----------------------Dm--------------------->

E|--------------1------------------------1-----------|
B|--------3-----------3------------3-----------3-----|
G|-----2-----2-----2-----2------2-----2-----2-----2--|
D|--0------------------------0-----------------------|
A|---------------------------------------------------|
E|---------------------------------------------------|


>--Dm7----------------------Dm7--------------------->

E|--------------1------------------------1-----------|
B|--------3-----------3------------3-----------3-----|
G|-----3-----3-----3-----3------3-----3-----3-----3--|
D|--0------------------------0-----------------------|
A|---------------------------------------------------|
E|---------------------------------------------------|


>---Dsus----------------------D---------------------->

E| --------------0------------------------0-----------|
B| --------1-----------1------------1-----------1-----|
G| -----3-----3-----3-----3------3-----3-----3-----3--|
D| --0------------------------0-----------------------|
A| ---------------------------------------------------|
E| ---------------------------------------------------|


>---D-----------------------G/D------------------->

E|--------------1------------------------3--1--5v--|
B|--------3-----------3------------3---------------|
G|-----5-----5-----5-----5------5-----5------------|
D|--0------------------------0---------------------|
A|-------------------------------------------------|
E|-------------------------------------------------|

E| --5-----------5-----------|
B| --------6-----------6-----|
G| -----7-----7-----7-----7--|
D| --------------------------|
A| --------------------------|
E| --------------------------|

E| --4-----------4-----------|
B| --------5-----------5-----|
G| -----6-----6-----6-----6--|
D| --------------------------|
A| --------------------------|
E| --------------------------|

E| --3-----------3-----------|
B| --------4-----------4-----|
G| -----5-----5-----5-----5--|
D| --------------------------|
A| --------------------------|
E| --------------------------|

E| --2-----------2-----------|
B| --------4-----------4-----|
G| -----5-----5-----5-----5--|
D| --------------------------|
A| --------------------------|
E| --------------------------|

E| --2-----------2-----------|
B| --------4-----------4-----|
G| -----4-----4-----4-----4--|
D| --------------------------|
A| --------------------------|
E| --------------------------|

E| --1-----------1-----------|
B| --------2-----------2-----|
G| -----3-----3-----3-----3--|
D| --------------------------|
A| --------------------------|
E| --------------------------|

E| --0-----------0-----------|
B| --------1-----------1-----|
G| -----2-----2-----2-----2--|
D| --------------------------|
A| --------------------------|
E| --------------------------|

E| --0-----------0-----------|
B| -----1-----1-----1-----1--|
G| --------0-----------0-----|
D| --------------------------|
A| --------------------------|
E| --------------------------|

E| --0-----------0-----------|
B| -----0-----0-----0-----0--|
G| --------0-----------0-----|
D| --------------------------|
A| --------------------------|
E| --------------------------|

Chords used:

>|-D-|-Dm-|-Dm7-|-Dsus-|-G/D-|
E|-2-|--1-|--2--|--3---|--3--|
B|-3-|--3-|--2--|--3---|--3--|
G|-2-|--2-|--2--|--2---|--4--|
D|-0-|--0-|--0--|--0---|--0--|
A|---|----|-----|------|-----|
E|---|----|-----|------|-----|

Written by Christian Hall
Related for The Mechanics - Jerusalem tab