Guitaretab - guitar tabs
Song name
# A B C D E F G H I J K L M N O P Q R S T U V W X Y Z

Misc Unsigned Bands - Swampthing - Fuck The Corner Office tab

-------------------------------------------------------------------------------
                   Fuck The Corner Office - SwampThing
-------------------------------------------------------------------------------
Tabbed by:replaceits
Email:sidw@ymail.com

Tuning:Standard

  Intro (starts with bass playing every note on the E string)
e|-----------------------------------------------|
B|-----------------------------------------------|
G|-----------------------------------------------|
D|-5~~~~~~~~-3~~~~~~~~-7~~~~~~~~-8~~~~-5~~~~~~~~-|
A|-5~~~~~~~~-3~~~~~~~~-7~~~~~~~~-8~~~~-5~~~~~~~~-|
E|-3~~~~~~~~-1~~~~~~~~-5~~~~~~~~-6~~~~-3~~~~~~~~-|


  1st Verse
e|---------------------------------------------------------------------|
B|---------------------------------------------------------------------|
G|---------------------------------------------------------------------|
D|-5-5-5-555-5-5-5-5-5-5-555-5-5-5--3-3-3-333-3-3-3-3-3-3-3-3-3-3-3-3--|
A|-5-5-5-555-5-5-5-5-5-5-555-5-5-5--3-3-3-333-3-3-3-3-3-3-3-3-3-3-3-3--|
E|-3-3-3-333-3-3-3-3-3-3-333-3-3-3--1-1-1-111-1-1-1-1-1-1-1-1-1-1-1-1--|

e|----------------------------------------------------------------|
B|----------------------------------------------------------------|
G|----------------------------------------------------------------|
D|-7-7-7-777-7-7-7-7-7-7--8-8-8--5-5-5-555-5-5-5-5-5-5-555-5-5-5--| Play The 1st Verse twice
A|-7-7-7-777-7-7-7-7-7-7--8-8-8--5-5-5-555-5-5-5-5-5-5-555-5-5-5--|
E|-5-5-5-555-5-5-5-5-5-5--6-6-6--3-3-3-333-3-3-3-3-3-3-333-3-3-3--|

[ Tab from: http://www.guitaretab.com/m/misc-unsigned-bands/188864.html ]
  2nd Verse
e|----------------------------------------------------------------------|
B|----------------------------------------------------------------------|
G|----------------------------------------------------------------------|
D|-5-5-5-5-5-5-5-5--3-3-3-3-3-3-3-3--7-7-7-7-7-7--8-8--5-5-5-5-5-5-5-5--| Play The 2nd Verse 4 Times
A|-5-5-5-5-5-5-5-5--3-3-3-3-3-3-3-3--7-7-7-7-7-7--8-8--5-5-5-5-5-5-5-5--|
E|-3-3-3-3-3-3-3-3--1-1-1-1-1-1-1-1--5-5-5-5-5-5--6-6--3-3-3-3-3-3-3-3--|


  3rd Verse
e|--------------------------|
B|--------------------------|
G|--------------------------|
D|-3-3-3-333-3--8-7-5-7--5--| Play The 3rd Verse 4 Times
A|-3-3-3-333-3--8-7-5-7--5--|
E|-1-1-1-111-1--6-5-3-5--3--|
     * * *** *


  4th Verse
e|---------------------------------------------------|
B|---------------------------------------------------|
G|---------------------------------------------------|
D|3-3-3-333-3--5-5-5-555-5--7-7-7-777-7--8-7-5-7--5--| Play The 4th Verse 4 Times
A|3-3-3-333-3--5-5-5-555-5--7-7-7-777-7--8-7-5-7--5--|
E|1-1-1-111-1--3-3-3-333-3--5-5-5-555-5--6-5-3-5--3--|
    * * *** *    * * *** *    * * *** *

  End On
e|------------|
B|------------|
G|------------|
D|-3~~~~~~~~--|
A|-3~~~~~~~~--|
E|-1~~~~~~~~--|


| * = Palm Mute
| ~ = let ring
===============================================================================

SwampThing is a RVA sXe Hardcore band!
I tabbed this to the 2006 Demo (free on there myspace!) if you steal my tab please give me credit!
I couldnt find this anywhere so I tabbed it myself!
Related for Swampthing - Fuck The Corner Office tab
Advertisement will be closed in 10 seconds