Song name
# A B C D E F G H I J K L M N O P Q R S T U V W X Y Z

Misc Unsigned Bands - Walter Day - The Museum Of Your Heart tab

museum of your heart


walter day


TRANSCRIBED BY RUDY GUZMAN


guzman_84@hotmail.com


this is the version that came on the DVD of king of kong bonus material

         note:
*****tune 1 step down*****

    boom boom i am a very simple man i never fell in love until you came along
eb:---------------------------------------------------------------------------1-1-1-1-1-1-1-|
Bb:-1-1-1-1-1-1-1-----------------1-1-1-1-1-1-1-----------------1-1-1-1-1-1-1-3-3-3-3-3-3-3-|
Gb:-0-0-0-0-0-0-0--0-0-0-0-0-0-0--2-2-2-2-2-2-2--1-1-1-1-1-1-1--2-2-2-2-2-2-2-2-2-2-2-2-2-2-|
Db:-2-2-2-2-2-2-2--0-0-0-0-0-0-0--2-2-2-2-2-2-2--2-2-2-2-2-2-2--1-1-1-1-1-1-1---------------|
Ab:-3-3-3-3-3-3-3--2-2-2-2-2-2-2--0-0-0-0-0-0-0--2-2-2-2-2-2-2--3-3-3-3-3-3-3---------------|
Eb:----------------3-3-3-3-3-3-3-----------------0-0-0-0-0-0-0--1-1-1-1-1-1-1---------------|

   boom boom boom boom...
eb:--------------------------------------|
Bb:--------------------------------------|
Gb:--------------------------------------|
Db:-0-0-0--------------------------------|
Ab:-2-2-2-2--0-0-0-0------------5-5-5-5--|
Eb:-3-3-3-3--1-1-1-1--0-0-0-0------------|

   and the love took me by suprise it open my heart my mind my soul my eyes you suprise
eb:---------------------------------------------------------------------------1-1-1-1-1-1-1-|
Bb:-1-1-1-1-1-1-1-----------------1-1-1-1-1-1-1-----------------1-1-1-1-1-1-1-3-3-3-3-3-3-3-|
Gb:-0-0-0-0-0-0-0--0-0-0-0-0-0-0--2-2-2-2-2-2-2--1-1-1-1-1-1-1--2-2-2-2-2-2-2-2-2-2-2-2-2-2-|
Db:-2-2-2-2-2-2-2--0-0-0-0-0-0-0--2-2-2-2-2-2-2--2-2-2-2-2-2-2--1-1-1-1-1-1-1---------------|
Ab:-3-3-3-3-3-3-3--2-2-2-2-2-2-2--0-0-0-0-0-0-0--2-2-2-2-2-2-2--3-3-3-3-3-3-3---------------|
Eb:----------------3-3-3-3-3-3-3-----------------0-0-0-0-0-0-0--1-1-1-1-1-1-1---------------|

   suprise
eb:--------------------------------------|
Bb:--------------------------------------|
Gb:--------------------------------------|
Db:-0-0-0--------------------------------|
Ab:-2-2-2-2--0-0-0-0------------5-5-5-5--|
Eb:-3-3-3-3--1-1-1-1--0-0-0-0------------|

    you said you thought ya were my soul mate and you said you never make my heart tick
eb:---------------0--------------------------|
Bb:-1-1-1-1-1-1-1-1-1-1-1--------------------|
Gb:-2-2-2-2-2-2-2-2-2-2-2--2-2-2-2-2-2-2-2-2-|
Db:-2-2-2-2-2-2-2-2-2-2-2--3-3-3-3-3-3-3-3-3-|
Ab:-0-0-0-0---0-0-0-0-0-0--3-3-3-3-3-3-3-3-3-|
Eb:------------------------1-1-1-1-1-1-1-1-1-|

  the museum of you heart bam bam bau bau bam bam the museum of you love bam bam bau bau bam
    the museum of the myth who love you before...
eb:----------------------------------------------------------------------------------------|
Bb:--------1-1-1-1-1-1-1----1-1-1-1-1-1-1--1-1-1-1-1-1-1-------------------------------1-1-|
Gb:--------0-0-0-0-0-0-0----0-0-0-0-0-0-0--2-2-2-2-2-2-2--0-0-0-0-0-0-0--2-2-2-2-2-2-2-2-2-|
Db:--------2-2-2-2-2-2-2----0-0-0-0-0-0-0--2-2-2-2-2-2-2--2-2-2-2-2-2-2--3-3-3-3-3-3-3-2-2-|
Ab:--------3-3-3-3-3-3-3----2-2-2-2-2-2-2--0-0-0-0-0-0-0--2-2-2-2-2-2-2--3-3-3-3-3-3-3-0-0-|
Eb:-----------------------3-----3---3---3-----------------0-0-0-0-0-0-0--1-1-1-1-1-1-1-----|

hillo son mex

17/06/09
Tap to rate this tab
# A B C D E F G H I J K L M N O P Q R S T U V W X Y Z