Guitaretab - guitar tabs
Song name
# A B C D E F G H I J K L M N O P Q R S T U V W X Y Z

Misc Unsigned Bands - Underdog - Back To Back tab

Heyy
This is my first tab i have done so its not great, this song has no
other tabs so i thought i'd contribute my version, althought its 
only one small riff in the song. I would much appreciate help 
and contrbutions. Contact me at fail_to_reason@yahoo.com  
Thanks in advance.

e|----------------10--101010---7777-----------------------|
B|--7777---9-10---12--121212---9999--10-9---7--777--------|
G|--9999---11-12---------------------12-11--9--999--------|
D|--------------------------------------------------------|
A|--------------------------------------------------------|
E|--------------------------------------------------------|
[ Tab from: http://www.guitaretab.com/m/misc-unsigned-bands/188904.html ]
e|----------------10--101010---7777-----------------------|
B|--7777---9-10---12--121212---9999--10-9---7-8--7-8--7--|
G|--9999---11-12---------------------12-11--9--10-9-10-9--|
D|--------------------------------------------------------|
A|--------------------------------------------------------|
E|--------------------------------------------------------|

e|----------------------10--101010---7777-----------------|
B|-8-7-777-7777-9-10---12--121212---9999--10-9---7777---|
G|-10-9-999-9999-11-12---------------------12-11--9999---|
D|--------------------------------------------------------|
A|--------------------------------------------------------|
E|--------------------------------------------------------|

Related for Underdog - Back To Back tab