Guitaretab - guitar tabs
Song name
# A B C D E F G H I J K L M N O P Q R S T U V W X Y Z

Misc Unsigned Bands - Anarchy 80 - Someone Like You tab

This song is a remake of the origional Someone Like you by The Scorpions. I got it stuck
my head one day and i thought to remaster it for more calming tune. This is an Acoustic
Because I remasterd the song for my girl. this is a 6 string tab and on acoustic only 
only use the Regular tuneing or it just sounds like shit.

KEY: <:palm mute, ~:let it ring for 5 seconds, _:let ring for 1 second, x:Finger mute stroke

Intro:
"Ive been searching a long time...."
E---------------------------------------||
B---------------------------------------||
G---------------------------------------||
D------2~-----2~----2~----5~----5~----5~||
A-----2------2-----2-----5-----5-----5--||
E--000---0000--0000--3333--3333--3333---||
[ Tab from: http://www.guitaretab.com/m/misc-unsigned-bands/188919.html ]
Verse1:
"Ive been traveling a hard road..."
E----------------------------------------||
B----------------------------------------||
G----------------------------------------||
D----------------------------------------||
A--22_22222-55_55555-77_77777-99x_99x_55x||
E--00_00000-33_33333-55_55555-77x_77x_33x||

Chorus2:
"Ive been doing some soul searching..."
E---------------------------------------------------------|
B---------------------------------------------------------|
G---------------------------------------------------------|
D------2~----2~----2~----5~----5~----5~----7~----7~----7~-|
A-----2-----2-----2-----5-----5-----5-----7-----7-----7---|
E--000--0000--0000--3333--3333--3333--5555--5555--5555----|

E------------------------||
B------------------------||
G------------------------||
D------9----7----5----2~-||
A-----9----7----5----2~--||
E--777--555--333--000~---||

Final Verse:
"Ive been all around the world..."
E-------------------------------------||
B-------------------------------------||
G-------------------------------------||
D-------------------------------------||
A--22_22222-55_55555-77_77777-99_99999||
E--00_00000-33_33333-55_55555-77_77777||
[Repeat 8x along to "Searching for someone like you"]
Related for Anarchy 80 - Someone Like You tab
Advertisement will be closed in 10 seconds