Song name
# A B C D E F G H I J K L M N O P Q R S T U V W X Y Z

Misc Unsigned Bands - Autumn Silence - Suicide In Our Memories tab

|-------------------------------------------------------------|
|-------------------------------------------------------------|
|-----2----2----1----2----2-----2----2----1--------4----------|
|---0----0----0----0----0-----0----0----0------2--2-----------|
|-0----0----0----0----0-----0----0----0----0-0---0------------|
|-------------------------------------------------------------|

|-------------------------------------------------------------|
|-------------------------------------------------------------|
|----2--1--2-------2--1----------2--1--2---4------------------|
|------------------------2-----------------2------------------|
|-0-------------0-------------0------------0------------------|
|-------------------------------------------------------------|
^Intro + Verse^
                               11 only on the starred position
|-------------------------------------------------------------|
|------------------------------*------------------------------|
|-7-7-7-7-77777777--------99999999----------------------------|
|-7-7-7-7-77777777777777779999911999999999--------------------|
|-5-5-5-5-55555555777777777777777799999999--------------------|
|---------55555555555555557777777777777777--------------------|
^Chorus^

Listen to this on youtube from my account Futuremusician728 at 
http://www.youtube.com/watch?v=TJWqFhV0-sc
Tap to rate this tab
 
# A B C D E F G H I J K L M N O P Q R S T U V W X Y Z