Song name
# A B C D E F G H I J K L M N O P Q R S T U V W X Y Z

Misc Unsigned Bands - Swampthing - My Attack tab

-------------------------------------------------------------------------------
                         My Attack - Swampthing
-------------------------------------------------------------------------------
Tabbed by:Replaceits
Email:sidw@ymail.com

Tuning:standard

  Play This One Time
e|---------------------|
B|---------------------|
G|---------------------|
D|-10-9-7~~~-7-7-7-7-7-|
A|-10-9-7~~~-7-7-7-7-7-|
E|--8-7-5~~~-5-5-5-5-5-|
             * * * * *

  Play this 3 Times
e|--------------|
B|--------------|
G|--------------|
D|-10-9-7~~~~~~-|
A|-10-9-7~~~~~~-|
E|--8-7-5~~~~~~-|

  And Play This 4 times
e|-------------------------------------|
B|-------------------------------------|
G|-------------------------------------|
D|-7-7-7-7-7-7-9-9-10-10-10-10--10-9-7-|
A|-7-7-7-7-7-7-9-9-10-10-10-10--10-9-7-|
E|-5-5-5-5-5-5-7-7--8--8--8--8---8-7-5-|

  End On (No Ring Just Hit Then Mute)
e|-----|
B|-----|
G|-----|
D|-7-X-|
A|-7-X-|
E|-5-X-|


| X = Stop Note
| * = Palm Mute
| ~ = let ring
===============================================================================

SwampThing is a RVA sXe Hardcore band!
I tabbed this to the 2006 Demo (free on there myspace!) if you steal my tab please give me credit!
I couldnt find this anywhere so I tabbed it myself!
Tap to rate this tab
# A B C D E F G H I J K L M N O P Q R S T U V W X Y Z