Song name
# A B C D E F G H I J K L M N O P Q R S T U V W X Y Z

Misc Unsigned Bands - Northwall - Beggars Cant Be Choosers tab

Beggars Cant Be Choosers (bass)
as recorded by: NorthWall

myspace.com/sdnorthwall


words and music by: NorthWall
arranged by:alf
guitar I (B F# B E)



Intro
||-------------------------------|------------------------------------|
||o------------------------------|----------------7------5------3p0---|
||o------------------------------|------------------h8-0---h7-0-------|
||--0-0-0-0--0-0--0-0-0-0--0-0---|--0-0-0-0--0-0----------------------|


||------------------------------|------------------------||-------------|
||------------------------------|-----------------------o||-------------|
||------------------------------|-----------------------o||-------------|
||-0-0-0-0--0-0--0-0-0-0--0-0---|-0-0-0-0--0-0--0-0-0-8--||-0-0-0--8-s10|

making excuses helping you out...
||-----------|----------|----------|
||o----------|----------|----------|
||o----------|----------|----------|
||--0--------|-8--------|-0--------|

dipped the fuck out...

(pause for guitar lead up)


                                (start second measure then repeat)
||-------------------------------|-----------------------------||
||o------------------------------|-----------------------------||
||o-8-8-8--8-888888--88-888-8888-|-----------------------------||
||-------------------------------|-8-8-8--8-888888--88-888-8888||

                                 dipped the fuck out...
||-----------------------------|------------------------------||
||-----------------------------|-----------------------------o||
||-----------------------------|-----------------------------o||
||-5-5-5--5-555555--55-555-5555|-7-7-7--777777--8-8-88888-----||

dumb stupid slut...
||-----------|----------||
||-----------|----------||
||-----------|----------||
||--0--------|-0--------||


(pause)
||-----------||
||-----------||
||-----------||
||--0--------||


ITS THAT VERY REASON....
||--------------------------------|-----------------------------------||
||o-------------------------------|----------------------------------o||
||o-------------------------------|----------------------------------o||
||-2-1-0-1-0-0-000--2-s6-66-55-s2-|-2-1-0-1-0-0-000-2-1-00-1-2-2222-1-||

   love was a bust so in lust you trust......
||----------------------------------------|
||o---------------------------------------|
||o---------------------------------------|
||-1-11-1-1-11-1-1-1-1-11-1-1-1-1-1-1-1-1-|

   have fun living life....
||-----------------------------------------|
||----------------------------------------o|
||----------------------------------------o|
||-1-11-1-1-11-1-1-1-1-11-1-1-11111--11111-|


(pause)

   so forget....
||------------------||
||------------------||
||------------------||
||-6-6-6-6--5-5-5-5-||

    the fake conservative snitch.... 
||---------------------------------||------------------------------------||
||o--------------------------------||-----------------------------------o||
||o-2------------------------------||-2---------------------------------o||
||----h5-0--1-1-1-0000000-1-0000000||---h5-0--1-1-1--1s-6-6-6-6--5-5-5-5-||



||----------------------------------||
||o--------------------------------o||
||o-2---------2----------2---------o||
||----h5-0--1---h5-0-1-2---h3-0-1---||


through thick and then.....
||--------------------------------||--------------------------------||
||o-------------------------------||-------------------------------o||
||o-2-----------------------------||-2-----------------------------o||
||----h5-0-1--00000000-1-00000000-||---h5-0-1-1-1--s6-5-6-0-2-5-0-1-||

                                    (second time) so forget.....
||---------------------------------||------------------------------------||
||o--------------------------------||-----------------------------------o||
||o--------------------------------||-5-5-5-5-5-5-5-5--1-1-1-1----------o||
||--1-1-1-1-1-1-1-1-1-1-1-1-1-1-1--||--------------------------2-2-2-2---||


||---------------------------------||------------------------------------||
||o--------------------------------||-----------------------------------o||
||o--------------------------------||-5-5-5-5-5-5-5-5--1-1-1-1----------o||
||--1-1-1-1-1-1-1-1-1-1-1-1-1-1-1--||--------------------------2-2-2-2---||
                                     through thick and then
||---------------------------------||------------------------------------||
||o--------------------------------||-----------------------------------o||
||o--------------------------------||-5-5-5-5-5-5-5-5--1-1-1-1----------o||
||--1-1-1-1-1-1-1-1-1-1-1-1-1-1-1--||--------------------------2-2-2-2---||




love was a bust....
||-------------|----------||
||o------------|---------o||
||o------------|---------o||
||--1-(0)------|-1-(0)----||



||---------------------||
||---------------------||
||---------------------||
||--0-0--0-0-0-0-0-0-0-||


love was a bust.....
||-----------------------------||-----------------------||
||o----------------------------||----------------------o||
||o----------------------------||----------------------o||
||--1-0--0--0-0-0--0-0---0-0-0-||--1-3--0-0-1-4-1-3-1-0-||


||---------------------------------------||
||---------------------------------------||
||---------------------------------------||
||-00000000--000000--000000-0-0000000000-||

||---------------------||
||---------------------||
||---------------------||
||-00-1-3-00-1-4-1-3-0-||
Tap to rate this tab
# A B C D E F G H I J K L M N O P Q R S T U V W X Y Z