Song name
# A B C D E F G H I J K L M N O P Q R S T U V W X Y Z

Misc Unsigned Bands - Touring The Driveway - Jump With Me tab

This is a song called 'Jump with me' by MY BAND, Touring the Driveway.
If you would like the lyrics, please msg me for them or add me
on facebook at: www.facebook.com/reghanduffy
and it's labeled in my notes.
Also add my band on myspace at:
www.myspace.com/touringthedriveway.
 And lastly, add myself On
myspace at: www.myspace.com/400600712 or www.myspace.com/fthepolice_fisforfollow.
THANKS FOR READING THIS!
                ~Reghan

NOTE:**CAPO ON 5TH FRET**
intro
E------------3---|
B----------1-----|
G----------2-----|
D--2---5---2-----|
A--2---3-----2---|
E------------3---|

verse 1
E------------3---|
B----------1-----|
G----------2-----|     x4
D--2---5---2-----|
A--2---3-----2---|
E------------3---|


CHORUS

E--3--2--------3--|
B--3--3-----1-----|
G-----2-----------|
D--2-----2--2-----|
A--3-----2--3--2--|
E--------------3--|

verse 2

E------------3---|
B----------1-----|
G----------2-----|
D--2---5---2-----|     x2
A--2---3-----2---|
E------------3---|

CHORUS

E--3--2--------3--|
B--3--3-----1-----|
G-----2-----------|
D--2-----2--2-----|
A--3-----2--3--2--|
E--------------3--|

bridge

E----------|
B----1--1--|
G-2--2--2--|     x8
D-3--2-----|
A-3-----3--|
E-1--------|

CHORUS

E--3--2--------3--|
B--3--3-----1-----|
G-----2-----------|
D--2-----2--2-----|
A--3-----2--3--2--|
E--------------3--|

end on G
Tap to rate this tab
# A B C D E F G H I J K L M N O P Q R S T U V W X Y Z