Song name
# A B C D E F G H I J K L M N O P Q R S T U V W X Y Z

Misc Unsigned Bands - The Mighty Sequoyah - Well Make It tab

---2--2----------3--3-----|
----3--3---3--3---3--3--2-|
----------4--4------------|
--------------------------|
--------------------------|
--------------------------|

---2--2----------------0--|
----3--3---3--3---2--2--3-|
----------4--4---2--2-----|
--------------------------|
--------------------------|
--------------------------|
Tap to rate this tab
# A B C D E F G H I J K L M N O P Q R S T U V W X Y Z