Song name
# A B C D E F G H I J K L M N O P Q R S T U V W X Y Z

Misc Unsigned Bands - The Crusierz - Breaking Out tab

-------------------------------------------------------------------------------
			     Breaking Out
 --------------------------------------------------------------------------------

Main RiFF : CHORUS


e|---------------------------------|
B|---------------------------------|
G|---------------------------------|
D|---------------------------------|
A|----------------8-8-8-8-7-7-7----|
E|-5-5-5-5-8-8-8-8-----------------|

Verse

e|------------------------------------|
B|------------------------------------|
G|------------------------------------|
D|------------------------------------|
A|-----------------8-8-8-8-7-7-7--x4--|
E|--5-5-5-5-8-8-8-8-------------------|

Palm Muted

Middle 8 + Solo coming soon

| /  slide up
| \  slide down
| h  hammer-on
| p  pull-off
| ~  vibrato
| +  harmonic
| x  Mute note
===============================================================================
Tap to rate this tab
 
# A B C D E F G H I J K L M N O P Q R S T U V W X Y Z