Song name
# A B C D E F G H I J K L M N O P Q R S T U V W X Y Z

Misc Unsigned Bands - Boofie - The Hunt For The Razors tab

Intro:

e|-2-2-2-3-2~--2-2-2-3-0~--2-2-2-3-5-3-2-3-------7/5-3-2-------------------|
B|-----------------------------------------5~--7---------3~--5-2~--5~--7-3~|
G|-------------------------------------------------------------------------|
D|-------------------------------------------------------------------------|
A|-------------------------------------------------------------------------|
E|-------------------------------------------------------------------------|


Chorus:

e|-2-2-3-2---3-3-5-2~--|
B|-3~----2---3-3-5-2~--|
G|-4~----3---4-4-6-3~--|
D|-4~----4---5-5-7-4~--|
A|-2~----4---5-5-7-4~--|  x2
E|-------2---3-3-5-2~--|


Verse 1:

e|-2~2-3-5-7-5-3-2h3p2h3p2-5-----5-7-|
B|-3~------------------------3-5-----|
G|-4~--------------------------------|
D|-4~--------------------------------|
A|-2~--------------------------------|
E|-----------------------------------|

e|-9-9-10-9-10-12-10-9-9-9-12-10-14-12-15-|
B|----------------------------------------|
G|----------------------------------------|
D|----------------------------------------|
A|----------------------------------------|
E|----------------------------------------|

e|-12h14p12h14p12-10-9-10-9-7-5-3-2-0-2-3-5-|
B|------------------------------------------|
G|------------------------------------------|
D|------------------------------------------|
A|------------------------------------------|
E|------------------------------------------|


Chorus:

e|-2-2-3-2---3-3-5-2~--|
B|-3~----2---3-3-5-2~--|
G|-4~----3---4-4-6-3~--|
D|-4~----4---5-5-7-4~--|
A|-2~----4---5-5-7-4~--|  x2
E|-------2---3-3-5-2~--|


Verse 2:

e|-2-2-3-2-------------2-5-2h3p2h3p2-5-0~|
B|-3~----2-5-2-3-5-7-5-------------------|
G|-4~----3-------------------------------|
D|-4~----4-------------------------------|
A|-2~----4-------------------------------|
E|-------2-------------------------------|

e|-------19-17-15-17-----------------------------------------|
B|-17-19-------------19----------17----19-19-19^(20)19-------|
G|----------------------18-19-19----18-----------------------|
D|-----------------------------------------------------------|
A|-----------------------------------------------------------|
E|-----------------------------------------------------19/2--|


Chorus:

e|-2-2-3-2---3-3-5-2~--|
B|-3~----2---3-3-5-2~--|
G|-4~----3---4-4-6-3~--|
D|-4~----4---5-5-7-4~--|
A|-2~----4---5-5-7-4~--|  x2
E|-------2---3-3-5-2~--|


Bridge:

e|-2-2-2-2-----------7p5---7p5---------2-2-2-2-----------7p5---7p5-------|
B|-3-3-3-3---------3-----3-------------3-3-3-3---------3-----3-----------|
G|-4-4-4-4-----------------------------4-4-4-4---------------------------|
D|-4-4-4-4-4-4-4-4-------------4-4-4-4-4-4-4-4-4-4-4-4-------------4---4-|
A|-2-2-2-2-4-4-4-4-------------4-4-4-4-2-2-2-2-4-4-4-4-------------4---4-|  
E|---------2-2-2-2-------------2-2-2-2---------2-2-2-2-------------2---2-|


Octave-solo:

e|-------------------------------------------------|
B|-------------------------------------------------|
G|-14-14-14-14-19-19-19-19-18-18-18-18-14-14-14-14-|
D|-------------------------------------------------|
A|-12-12-12-12-17-17-17-17-16-16-16-16-12-12-12-12-|
E|-------------------------------------------------|

e|-------------------------------------------------|
B|-------------------------------------------------|
G|-14-14-14-14-19-19-19-19-21-21-21-21-23-23-23-23-|
D|-------------------------------------------------|
A|-12-12-12-12-17-17-17-17-19-19-19-19-21-21-21-21-|
E|-------------------------------------------------|

e|-------------------------------------------------|
B|-------------------------------------------------|
G|-14-14-14-14-19-19-19-19-18-18-18-18-14-14-14-14-|
D|-------------------------------------------------|
A|-12-12-12-12-17-17-17-17-16-16-16-16-12-12-12-12-|
E|-------------------------------------------------|

e|-------------------------------------------------|
B|-------------------------------------------------|
G|-14-14-14-14-19-19-19-19-21-21-21-21-23-23-23-23-|
D|-------------------------------------------------|
A|-12-12-12-12-17-17-17-17-19-19-19-19-21-21-21-21-|
E|-------------------------------------------------|

e|-------------------------------------------------|
B|-------------------------------------------------|
G|-23-23-23-23-19-19-19-19-18-18-18-18-16-16-16-16-|
D|-------------------------------------------------|
A|-21-21-21-21-17-17-17-17-16-16-16-16-14-14-14-14-|
E|-------------------------------------------------|

e|----------------------------------------------|
B|----------------------------------------------|
G|-16-16-16-16-18-18-18-18-14-14-14-14-12-12-11~|
D|----------------------------------------------|
A|-14-14-14-14-16-16-16-16-12-12-12-12-10-10--9~|
E|----------------------------------------------|


Pre-Chorus:

e|-------------------------------------------------|
B|-------------------------------------------------|
G|-------------------------------------------------|
D|-4-4-4-4-4-4-4-4-5-5-5-5-5-5-5-5-4-4-4-4-4-4-4-4-|
A|-4-4-4-4-4-4-4-4-5-5-5-5-5-5-5-5-4-4-4-4-4-4-4-4-|
E|-2-2-2-2-2-2-2-2-3-3-3-3-3-3-3-3-2-2-2-2-2-2-2-2-|

e|-----------------------------------------------------------------|
B|-----------------------------------------------------------------|
G|-4-4-4-4-4-4-4-4-------------------------------------------------|
D|-4-4-4-4-4-4-4-4-4-4-4-4-4-4-4-4-5-5-5-5-5-5-5-5-4-4-4-4-4-4-4-4-|
A|-2-2-2-2-2-2-2-2-4-4-4-4-4-4-4-4-5-5-5-5-5-5-5-5-4-4-4-4-4-4-4-4-|
E|-----------------2-2-2-2-2-2-2-2-3-3-3-3-3-3-3-3-2-2-2-2-2-2-2-2-|


Chorus:

e|-2-2-3-2---3-3-5-2~--|
B|-3~----2---3-3-5-2~--|
G|-4~----3---4-4-6-3~--|
D|-4~----4---5-5-7-4~--|
A|-2~----4---5-5-7-4~--|  x2
E|-------2---3-3-5-2~--|


Solo:

e|---------------------------------|
B|---------------------------------|
G|---------------------------------|
D|-------5-4-2-4-------------5---5-|
A|-2-4-5---------5-4-2-5-----5---5-|
E|-----------------------2---3---3-|

e|-2-3-2--------------5-7-9-10-12h14p12h14p12-------|
B|-------3-5-3-0~-5-7-------------------------14/15-|
G|--------------------------------------------------|
D|--------------------------------------------------|
A|--------------------------------------------------|
E|--------------------------------------------------|

e|-------------------12-14-15-12-14-15-------------------12-14-15-12-14-15-|
B|-12-14-15-12-14-15-------------------12-14-15-12-14-15-------------------|
G|-------------------------------------------------------------------------|
D|-------------------------------------------------------------------------|
A|-------------------------------------------------------------------------|
E|-------------------------------------------------------------------------|

e|---------------------------|
B|-15-14-12-10-12~-----------|
G|---------------------------|
D|------------------17----17-|
A|------------------17----17-|
E|------------------15----15-|


Alternate Pre-chorus:

e|-------2-------2-------3-------2-------2-------2-------3-2~--|
B|-----3-------2-------3-------2-------3-------2-------3---2~--|
G|---4-------3-------4-------3-------4-------3-------4-----3~--|
D|---------------------------------------------------------4~--|
A|-2-------------------------------2-----------------------4~--|
E|---------2-------3-------2---------------2-------3-------2~--|


Intro:

Intro:

e|-2-2-2-3-2~--2-2-2-3-0~--2-2-2-3-5-3-2-3-------7/5-3-2-------------------|
B|-----------------------------------------5~--7---------3~--5-2~--5~--7-3~|
G|-------------------------------------------------------------------------|
D|-------------------------------------------------------------------------|
A|-------------------------------------------------------------------------|
E|-------------------------------------------------------------------------|


Chorus:

e|-2-2-3-2---3-3-5-2~--|
B|-3~----2---3-3-5-2~--|
G|-4~----3---4-4-6-3~--|
D|-4~----4---5-5-7-4~--|
A|-2~----4---5-5-7-4~--|  x2
E|-------2---3-3-5-2~--|


Outro:

e|-2-2-3-2----------------------2~---------|
B|-3~----2-5-2-3-5-7-5-3~--2~---3~---------|
G|-4~----3----------------------4~---------|
D|-4~----4----------------------4~---------|
A|-2~----4----------------------2~---------|
E|-------2---------------------------------|
Tap to rate this tab
# A B C D E F G H I J K L M N O P Q R S T U V W X Y Z