Song name
# A B C D E F G H I J K L M N O P Q R S T U V W X Y Z

Misc Unsigned Bands - Swapavi - Lolwut tab

Tab Legend
----------
h - hammer on
p - pull off
/ - slide up
\ - slide back
~ - vibrato


|------------------------------------------------------------------|
|------------------------------------------------------------------|
|------------------------------------------------------------------|
|-7-7-7-----------------------------7-7-7--------------------------|
|------9-9-9-7-7-5-5-5-7-7-7-9-9---------9-9-9-7-7-5-5-5-4-4-4-5-4-|
|------------------------------------------------------------------| 

|-----------------------------------------------|
|-----------------------------------------------|
|-----------------------------------------------|
|-11-11-11-11-11-11-11-11-12-12-12-11-11-11-9-9-|
|-x--x--x--x--x--x--x--x--x--x--x--x--x--x--x-x-|
|-9--9--9--9--9--9--9--9--10-10-10-9--9--9--7-7-|x3

|-----------------------------------------------------------|
|-----------------------------------------------------------|
|-------------------------------11-9-7-7-6h7p6--------------|
|-7h9-9--9-9-9-12\11-9--9-9-9------------------7-7-9--9-9-9-|
|-----------------------------------------------------------|
|-----------------------------------------------------------|x2

|------------------------------------------------------------------|
|------------------------------------------------------------------|
|------------------------------------------------------------------|
|-7-7-7-----------------------------7-7-7--------------------------|
|------9-9-9-7-7-5-5-5-7-7-7-9-9---------9-9-9-7-7-5-5-5-4-4-4-5-4-|
|------------------------------------------------------------------|

|----------------------------------|
|----------------------------------|
|----------------------------------|
|-9-9-9-7-7-7-5-5-4-4-4-5-5-5-4-4--|
|----------------------------------|
|----------------------------------|x2

|------------------------------------|
|------------------------------------|
|---------9-11-12-11-9---------------|
|-9-11-12----------------12-11-12-11-|
|------------------------------------|
|------------------------------------|

|----------------------------------|
|----------------------------------|
|----------------------------------|
|----------------------------------|
|----------**SCRATCH**-------------|
|----------------------------------|

|-----------------------------------------------------------|
|-----------------------------------------------------------|
|-------------------------------11-9-7-7-6h7p6--------------|
|-7h9-9--9-9-9-12\11-9--9-9-9------------------7-7-9--9-9-9-|
|-----------------------------------------------------------|
|-----------------------------------------------------------|x2

|-----|-------------------------------|
|-----|-------------------------------|
|--4--|-------------------------------|
|--x--|-------------------------------|
|--2--|--------**SCRATCH**------------|
|-----|-------------------------------|

|------------------------------------------------------------------|
|------------------------------------------------------------------|
|------------------------------------------------------------------|
|-7-7-7-----------------------------7-7-7--------------------------|
|------9-9-9-7-7-5-5-5-7-7-7-9-9---------9-9-9-7-7-5-5-5-4-4-4-5-4-|
|------------------------------------------------------------------|

|----------------------------------|
|----------------------------------|
|----------------------------------|
|-9-9-9-7-7-7-5-5-4-4-4-5-5-5-4-4--|
|----------------------------------|
|----------------------------------|x2

|------------------------------------|--------|
|------------------------------------|--------|
|---------9-11-12-11-9---------------|--4~~~--|
|-9-11-12----------------12-11-12-11-|--x~~~--|
|------------------------------------|--2~~~--|
|------------------------------------|--------|

That's it.
Tap to rate this tab
# A B C D E F G H I J K L M N O P Q R S T U V W X Y Z