Song name
# A B C D E F G H I J K L M N O P Q R S T U V W X Y Z

Misc Unsigned Bands - Brian Diaz - Angels And Earth tab

Standard Tuning
-----------------------------------------------
Ghost Notes in Parenthesis = (X)
----------------------------------------------

Intro ( Go Average Speed )

e||-------------------------------------------------------------||
B||-------------------------------------------------------------||
G||-------------0----------0---------0---------0----------------|| x4
D||----------2----------2---------2---------0-------------------||
A||-------3----------0---------0---------0----------------------||
D||----0----------0---------3---------2-------------------------||


e||-------------------------------------------------------------||
B||---------------0--(0)--(0)--(0)--(0)--(0)--------------------||
G||---------------------------------------------------0--------0|| x4
D||----------2-------------------------------------2--------0---||
A||-------3-------------------------------------0--------0------||
D||----0-------------------------------------3--------2---------||

e||-------------------------------------------------------------||
B||-------------------------------------------------------------||
G||-------------0----------0---------0---------0----------------|| x4
D||----------2----------2---------2---------0-------------------||
A||-------3----------0---------0---------0----------------------||
D||----0----------0---------3---------2-------------------------||


e||-------------------------------------------------------------||
B||-------------------------------------------------------------||
G||-----------------------0----0----0----0----------------------|| x1
D||---2----2----2----2----2----2----2----2----------------------||
A||---3----3----3----3----3----3----3----3----------------------||
D||-------------------------------------------------------------||

|-----------------------------------------------------------------|

e||--0--------0---0---0-------0---0---0--------0---0-------0---0-||
B||--0--------0---0---0-------0---0---0--------0---0-------0---0-||
G|| -0--------0---0---0-------0---0---0--------0---0-------0---0-||
D||--2--------2---2---2-------2---2---2--------2---2-------2---2-||
A||--3--------3---3---3-------3---3---3--------3---3-------3---3-||
D||--0--------0---0---0-------0---0---0--------0---0-------0---0-||


e||--0--------0---0---0-------0---0---0--------0---0-------0---0-||
B||--0--------0---0---0-------0---0---0--------0---0-------0---0-||
G|| -0--------0---0---0-------0---0---0--------0---0-------0---0-||
D||--2--------2---2---2-------2---2---2--------2---2-------2---2-||
A||--2--------2---2---2-------2---2---2--------2---2-------2---2-||
D||--0--------0---0---0-------0---0---0--------0---0-------0---0-||


e||--0--------0---0---0-------0---0---0--------0---0-------0---0-||
B||--0--------0---0---0-------0---0---0--------0---0-------0---0-||
G|| -0--------0---0---0-------0---0---0--------0---0-------0---0-||
D||--2--------2---2---2-------2---2---2--------2---2-------2---2-||
A||--0--------0---0---0-------0---0---0--------0---0-------0---0-||
D||--0--------0---0---0-------0---0---0--------0---0-------0---0-||


e||--0--------0---0---0-------0---0---0--------0---0-------0---0-||
B||--0--------0---0---0-------0---0---0--------0---0-------0---0-||
G|| -0--------0---0---0-------0---0---0--------0---0-------0---0-||
D||--2--------2---2---2-------2---2---2--------2---2-------2---2-||
A||--2--------2---2---2-------2---2---2--------2---2-------2---2-||
D||--0--------0---0---0-------0---0---0--------0---0-------0---0-||

^|-----------------------------------------------------------------|^
                             | Repeat x3 |

Then

e||---0---0---0---0---||       e||---0---0---0---0---||
B||---0---0---0---0---||       B||---0---0---0---0---||
G||---0---0---0---0---||  x4   G||---0---0---0---0---||  x4
D||---2---2---2---2---||       D||---2---2---2---2---||
A||---3---3---3---3---||       A||---2---2---2---2---||
D||---0---0---0---0---||       D||---0---0---0---0---||

e||---0---0---0---0---||       e||---0---0---0---0---||
B||---0---0---0---0---||       B||---0---0---0---0---||
G||---0---0---0---0---|| x4    G||---0---0---0---0---|| x4
D||---2---2---2---2---||       D||---2---2---2---2---||
A||---0---0---0---0---||       A||---2---2---2---2---||
D||---0---0---0---0---||       D||---0---0---0---0---||


----------------------------------------------------------------

e||--0----0----0----0---||
B||--3----3----3----3---||
G|| -0----0----0----0---|| x3
D||--2----2----2----2---||
A||--3----3----3----3---||
D||--0----0----0----0---||


e||--0---------0-----------0-------------0-----------------------||
B||--3---------3-----------3-------------0-----------------------||
G|| -0---------0-----------0-------------0-----------------------|| x1
D||--2---------2-----------2-------------2-----------------------||
A||--3---------3-----------3-------------3-----------------------||
D||--0---------0-----------0-------------0-----------------------||

6 secs. pause

|-----------------------------------------------------------------------|
                               Ending

e||-------------------------------------------------------------||
B||-------------------------------------------------------------||
G||-------------0----------0---------0---------0----------------|| x4
D||----------2----------2---------2---------0-------------------||
A||-------3----------0---------0---------0----------------------||
D||----0----------0---------3---------2-------------------------||


e||-------------------------------------------------------------||
B||---------------0-----------0------------0----------0---------||
G||-------------------------------------------------------------|| x4
D||---------2------------2------------0-----------0-------------||
A||------3------------0------------2-----------0----------------||
D||---0------------0------------3-----------2-------------------||

-----------------------------------------------------------------------
 Slowly Lower The Strum Sound As You Finish The Last Section Of ( End )
-----------------------------------------------------------------------

Silent End ( Bass )

e||-------------------------------------------------------------||
B||-------------------------------------------------------------||
G||-------------------------------------------------------------|| 
D||---------------------------------------------------------3---||
A||------------------------------------------------------2------||
D||(0)---(0)---(0)--(0)-(0)--(0)--(0)--(0)-(0)-(0)----0---------||

|----------------------------------------------------------------------|

This is the end of the song, but with no lyrics, as I have yet to come up with them.
Tap to rate this tab
 
# A B C D E F G H I J K L M N O P Q R S T U V W X Y Z