Song name
# A B C D E F G H I J K L M N O P Q R S T U V W X Y Z

Misc Unsigned Bands - Your Salvation - Alpha And Omega tab

Alpha an Omega
(Single Guitar Version) Not Full Length
Band Name: Don't have a Name yet...

This Song has been made by Antonius Van Lit (Me!)
Email: Darkdem0n84@hotmail.com

Standard Tuning EADGBe
Difficulity: Novice
Genre: Unknown

~ Let Ring
. Palm Mute
* Pinch Harmonic
/ Slide Up
\ Slide Down
^ Vibrato
h Hammer on
p Pull off
b Bend


Intro
(Clean) Riff A    x2
e|--------------------|
B|--------------------|
G|-----------7--------|
D|-------7-----7---7--|
A|-----5---5-----5----|
E|---0----------------|

Riff B            x2
e|--------------------|
B|--------------------|
G|-----------4--------|
D|-------4-----4---4--|
A|-----2---2-----2----|
E|---0----------------|

Riff A            x2
e|--------------------|
B|--------------------|
G|-----------7--------|
D|-------7-----7---7--|
A|-----5---5-----5----|
E|---0----------------|


Riff B            x2
e|--------------------|
B|--------------------|
G|-----------4--------|
D|-------4-----4---4--|
A|-----2---2-----2----|
E|---0----------------|


Middle
(Dist.)
e|--------------------|
B|--------------------|
G|--------------------|
D|---0~~~~------------|
A|---0~~~~------------| Then slide your hand down the fret board
E|---0~~~~------------|

Speed: (Slow)
e|-----------------------------------|
B|-----------------------------------|
G|-----------------------------------|
D|---------------10----------------7-|
A|---00000-00-00-8-----00000-00-00-5-|
E|---00000-00-00-------00000-00-00---|
     ..... .. ..       ..... .. ..

e|-----------------------------------|
B|-----------------------------------|
G|-----------------------------------|
D|---------------8-----------------5-|
A|---00000-00-00-6-----00000-00-00-3-|
E|---00000-00-00-------00000-00-00---|
     ..... .. ..       ..... .. ..

Speed: (Moderate)                 x4
e|-----------------------------------|
B|-----------------------------------|
G|-----------------------------------|
D|-------10-----7-----8-----5--------|
A|---00008--00005-00006-00003--------|
E|---0000---0000--0000--0000---------|
     ....   ....  ....  ....



Speed: (Moderate)                 x2
e|-----------------------------------|
B|-----------------------------------|
G|-----------------------------------|
D|-------10*----7*----8*----5*-------|
A|---0000---0000--0000--0000---------|
E|---0000---0000--0000--0000---------|
     ....   ....  ....  ....

Pre Solo -- Speed: (Moderate) x2
e|---------------------------------|
B|---------------------------------|
G|--10/15-14-12-10--10/15-14-12-10-|
D|---------------------------------|
A|---------------------------------|
E|---------------------------------|

Solo
e|--------------------------------------------|
B|--------------------------------------------|
G|--10/12-12/14-14/15----15-14-12-10-12-1212^-|
D|--------------------------------------------|
A|--------------------------------------------|
E|--------------------------------------------|

e|--------------------------------------------|
B|--------------------------------------------|
G|--12-10-8-15-1515^--15-14-12-10-12-1412^----|
D|--------------------------------------------|
A|--------------------------------------------|
E|--------------------------------------------|

Outro -- Speed: (Slow)

(Clean)                  x2
e|--------------------------|
B|--------------------------|
G|-----------7--------------|
D|-------7-----7---7--------|
A|-----5---5-----5----------|
E|---0----------------------|
                         x2
e|--------------------------|
B|--------------------------|
G|-----------4---------4~~~-|
D|-------4-----4---4~~------|
A|-----2---2-----2----------|
E|---0----------------------|


Play Order:
Intro
Middle
Pre Solo
Solo
Outro

Email me if you have any Questions!
Darkdem0n84@hotmail.com
Tap to rate this tab
# A B C D E F G H I J K L M N O P Q R S T U V W X Y Z