Song name
# A B C D E F G H I J K L M N O P Q R S T U V W X Y Z

Misc Unsigned Bands - Brad Doggett - April tab

April Tab by Brad Dogget
(http://www.youtube.com/watch?v=JMjibf8oEmw)

Capo on 2nd
Standard Tuning

I'm pretty sure this is accurate. This is my first tab. To find out the strumming 
watch Brads April live version. Should be easy but if you need help feel free to ask. Enjoy

This is the "Picking part aka TAB" thing.

-----------------------------------------|
------1--------1-------------------------|
------0--------0-------8-----9--8--------|
------2----0h2---------7-----7--7--------|
---3-----3-------------------------------|
------------------1s7-----7--------------|
    C


----------------------------------------|
----------------------------------------|
------0---------0-------4-----5---4-----|
------2-----2s4---------5-----5---5-----|
----------------------------------------|
---0------0-----------3---- 3-----------|
    Em
~~~~~~~~~~~~~~~~~~~~~~~~~~~~~~~~~~~~~~~~

Intro
(Picking part aka TAB) x2

1st Verse
Oh if I told you that I..
(Picking part aka TAB) x4


Pre-chorus
So don't try to change my mind..
(Am , C) x2 (Let C Ring Second Time)


Chorus
I got this girl for me...
(Picking part aka TAB) x2


Chorus pt 2(?)
I'll stay waiting..
(C , G , 054030 , Em
C , G , 054030.)


Interlude to 2nd Verse
ooooooOOOooo
(Picking part aka TAB) x2


2nd Verse
So if i told you that I..
(Picking part aka TAB) x4


Pre-chorus
So don't try to change my mind..
(Am , C) x2 (Let C Ring Second Time)


Chorus
I got this girl for me...
(Picking part aka TAB) x2


Chorus pt 2(?)
I'll stay waiting..
(C , G , 054030 , Em
C , G , 054030.)


Outro
No nooo....
(Picking part aka TAB) x2
Tap to rate this tab
 
# A B C D E F G H I J K L M N O P Q R S T U V W X Y Z