Song name
# A B C D E F G H I J K L M N O P Q R S T U V W X Y Z

Misc Unsigned Bands - Uncircumsized - As I tab

 As I - Unc!rcum$ized

Tabbed by: Max Morris
Email:

Tuning: Drop D
1st guitar
e|-----------------------------------------------------------------------------|
B|-----------------------------------------------------------------------------|
G|-7--x14-/---9---x14-/---10---x14-/--5---x14--------------------------x2------|
D|-0------/---0-------/----0-------/--0----------------------------------------|
A|-----------------------------------------------------------------------------|
E|-----------------------------------------------------------------------------|


2nd guitar
e|--------------------------------------------------------------------------------|
B|--------------------------------------------------------------------------------|
G|--7-9-10-9-7-5------------------------------------------------------x7----------|
D|--------------------------------------------------------------------------------|
A|--------------------------------------------------------------------------------|
E|--------------------------------------------------------------------------------|
|

1st guitar
e|-----------------------------------------------------------------------------|
B|-----------------------------------------------------------------------------|
G|---7----9----10----9----7---5----------------------------------------x4------|
D|-0---00---00----00---00---0--------------------------------------------------|
A|-----------------------------------------------------------------------------|
E|-----------------------------------------------------------------------------|
1st guitar
e|-----------------------------------------------------------------------------|
B|-----------------------------------------------------------------------------|
G|---7---7---777-----55---5-----9--9--999----10-10---10-----------------x2-----|
D|---0---0---000-----00---0-----0--0--000-----0-0----0-------------------------|
A|-----------------------------------------------------------------------------|
E|-----------------------------------------------------------------------------|
 1st guitar
e|-----------------------------------------------------------------------------|
B|-----------------------------------------------------------------------------|
G|--777---55----10-10-10---12-12-----------------------------------------------|
D|--777---55----10-10-10---12-12--------------------------------------x2-------|
A|--555---33----8--8--8----10-10-----------------------------------------------|
E|-----------------------------------------------------------------------------|

e|------------------10-10-10-10-10---------------------------------------------|
B|-----------------------------------------------------------------------------|
G|---------------------------------------------------------------x4------------|
D|--7--5---10-10-10------------------------------------------------------------|
A|--5--3---8--8--8-------------------------------------------------------------|
E|-----------------------------------------------------------------------------|
pre chorus
e|-----------------------------------------------------------------------------|
B|-----------------------------------------------------------------------------|
G|-----------------------------------------------------------------------------|
D|---7--5--10------------------------------------------------------------------|
A|---5--3--8-------------------------------------------------------------------|
E|-----------------------------------------------------------------------------|

2nd guitar
e|-----------------------------------------------------------------------------|
B|-----------------------------------------------------------------------------|
G|-----------------------------------------------------------------------------|
D|--77--99--10-10--99---77--55----------------------------------x3-------------|
A|-----------------------------------------------------------------------------|
E|-----------------------------------------------------------------------------|

chorus
e|-----------------------------------------------------------------------------|
B|-----------------------------------------------------------------------------|
G|-----------------------------------------------------------------------------|
D|--7---3----------------------------------------------------------------------|
A|--5---1--5--1--------------------------------------------------x4------------|
E|---------3--3----------------------------------------------------------------|



| /  slide up
| \  slide down
| h  hammer-on
| p  pull-off
| ~  vibrato
| +  harmonic
| x  Mute note
Tap to rate this tab
 
# A B C D E F G H I J K L M N O P Q R S T U V W X Y Z