Guitaretab - guitar tabs
Song name
# A B C D E F G H I J K L M N O P Q R S T U V W X Y Z

Misc Unsigned Bands - Alfred Davis - Ella Lluvia tab

----------------------------------------------------------------------------
			     Ella Lluvia - Al
----------------------------------------------------------------------------
Tabbed by: Al
Email:alfredjdavisjr@yahoo.com

Tuning:1/4 step down from E (can be played on E or Eb)

I would suggest delay and reverb with a soft tone


Intro
e|-------------------------------------------------------------------------|
B|--6-----------------6---------------4------------------4-----------------|
G|-----------5----------------5-----------------3-----------------3--------|
D|-----------6----------------6-----------------4-----------------4--------|
A|--4-----------------4---------------2------------------2-----------------|
E|-------------------------------------------------------------------------|
       pm       pm       pm      pm      pm        pm       pm        pm

let chords ring before muting


e|-------------------------------------------------------------------------|
B|--6~----------------6-----------------4-----------------4----------------|
G|-----------5-----------------5-----------------3-----------------3-------|
D|-----------6----6x-----------6----6x-----------4----4x-------------------|
A|--4------------4x---4------------4x---2------------2x---2----------------|
E|-----------------------------------------------------------------6-------|
       Pm      pm___      pm     pm___      pm     pm___      pm

Chorus
e|-------------------------------------------------------------------------|
B|--6------------------------6---------------------------------------------|
G|-----5--------5---------------5--------5---------------------------------|
D|--------6--------6------6--------6--------6------6-----------------------|
A|--4--------4--------4------4--------4--------4---------------------------|
E|-------------------------------------------------------------------------|

e|-------------------------------------------------------------------------|
B|--4------------------------4---------------------------------------------|
G|-----3--------3---------------3-----3--------3---------------------------|
D|--------4--------4------4--------4-----4--------4------------------------|
A|--2--------2--------2------2--------------2------------------------------|
E|-------------------------------------------------------------------------|
[ Tab from: http://www.guitaretab.com/m/misc-unsigned-bands/189488.html ]
e|-------------------------------------------------------------------------|
B|--6-----------------------6-----------9-----------4----------------------|
G|-----5--------5--------------5-----------8-----------3--------3----------|
D|--------6--------6-----6--------6-----------9-----------4--------4-----4-|
A|--4--------4--------4-----4--------4--7--------7--2--------2--------2----|
E|-------------------------------------------------------------------------|


               *last measure*
e|----------------------------|Repeat chorus three/four times--------------|
B|--4-----------7-------------|On second chorus replace---------7----------|
G|-----3-----------6----------|last measure with>>>>>>>--------------------|
D|--------4-----------7-------|---------------------------------7----------|
A|--2--------2--5--------5----|---------------------------------5----------|
E|----------------------------|--------------------------------------------|



	Solo (play on top of third chorus)
                                                          *sweep*
e|----------4------6h8---------3/4p3------------3----4-------3----------|
B|---6------------------9---8-----------4------------6------1-----------|
G|---------------------------------------------------6-----0------------|
D|----------------------------------------------------------------------|
A|----------------------------------------------------------------------|
E|----------------------------------------------------------------------|

e|----------4------4h6/8--------------------------------3--------|
B|---6------------------------14-----------------4---------------|
G|----------------------------------12h13p12---------------------|
D|---------------------------------------------------------------|
A|---------------------------------------------------------------|
E|---------------------------------------------------------------|


e|---8--6---------------------------------|
B|---6----9--11--9------------------------|
G|-----------8-----12--13------12---------|
D|---------------------10-------------13--|
A|------------------------------------13--|
E|------------------------------------11--|
                                   let ring

e|--------4--------20------16-----------------15---------------------------|
B|--6--------------------------20~-------16-----------20-------------------|
G|---------------------------------------------------20------------20------|
D|--------------------------------------------------------------20---------|
A|-----------------------------------------------------------18------------|
E|-------------------------------------------------------------------------|
                                                           ^slow sweep^

Nickel:]



| pm palm mute
| /  slide up
| \  slide down
| h  hammer-on
| p  pull-off
| ~  vibrato
| x  Mute note
============================================================================

Related for Alfred Davis - Ella Lluvia tab