Song name
# A B C D E F G H I J K L M N O P Q R S T U V W X Y Z

Misc Unsigned Bands - Revilation - Sweep Technique tab

Help us improve GuitareTab! Take a short survey!
rEvilation
Sweep Technique

This is just a lil sweep technique i did including a tap of the finger...
On the skinny E, instead of hammering, you can use the pick instead so it will sound clearer.

E----------13h17p13----------13h17p13h18p13h17p13-----------13h17t22p17p13---|
B--------15--------15------15--------------------15------15---------------15-|
G------14------------14--14------------------------14--14--------------------|
D----15----------------15----------------------------15----------------------|
A--17------------------------------------------------------------------------|
E----------------------------------------------------------------------------|

continued....(on G)

E---------13h17p13----------13h17/21p17-------|
B-------15--------15------15-----------18-----|
G-14--14------------14--14---------------19~~-|
D---15----------------15----------------------|
A---------------------------------------------|
E---------------------------------------------|

So yea...
Related for Revilation - Sweep Technique tab