Guitaretab - guitar tabs
Song name
# A B C D E F G H I J K L M N O P Q R S T U V W X Y Z

Misc Unsigned Bands - Bomber Man The Second Attack - Angel tab

BomberMan the Second Attack!  Angel

Standard Tuning

e--5-6--5-6---8-9--8-9---11-12--11-12---14-15--14-15---17-14--10-|
B-5--------------------------------------------------------------|
G----------------------------------------------------------------|
D----------------------------------------------------------------|
A----------------------------------------------------------------|
E----------------------------------------------------------------|

e--5-7--5-7---8-9--8-9---11-12--11-12---14-15--14-15---17---19---|
B-5--------------------------------------------------------------|
G----------------------------------------------------------------|
D----------------------------------------------------------------|
A----------------------------------------------------------------|
E----------------------------------------------------------------|

e-------------------------------------------16-15--13--15--16--18-|
B----5--3--------------------5--3--5--7---------------------------|
G--5---------5---7---3-----5--------------------------------------|
D-----------------------------------------------------------------|
A-----------------------------------------------------------------|
E-----------------------------------------------------------------|
[ Tab from: http://www.guitaretab.com/m/misc-unsigned-bands/189515.html ]
e-16--17--18--19--19-19-19-19-19-20-19---19-19-19-19-19-20-21--21-|
B-----------------------------------------------------------------|
G-----------------------------------------------------------------|
D-----------------------------------------------------------------|
A-----------------------------------------------------------------|
E-----------------------------------------------------------------|

e-21-21-21-21--21--20-19-20-19-18-19-18-17-18-17-16--15-15-15-15-|
B----------------------------------------------------------------|
G----------------------------------------------------------------|
D----------------------------------------------------------------|
A----------------------------------------------------------------|
E----------------------------------------------------------------|

e--15-15-15-15--16--16--15-14-13-12---11-------------------------|
B----------------------------------------------------------------|
G----------------------------------------------------------------|
D----------------------------------------------------------------|
A----------------------------------------------------------------|
E----------------------------------------------------------------|

After the end, repeat from the beginning as long as the song continues, which about 3 
long. The song can be found on YouTube.
Related for Bomber Man The Second Attack - Angel tab