Song name
# A B C D E F G H I J K L M N O P Q R S T U V W X Y Z

Misc Unsigned Bands - The Bolts - Hero In Disguise tab

there is two guitars for the intro, then they play the same thing for the rest of the song.
intro:
guitar one
e-1-1--------------------------1---\
b----1-3---1-1-3----1-4-3-1-1---4-3 |
g-------3-3------3-2---------2----- | repeat this twice. then it goes into the
d-----------------3-----------3---- | verse.
a---------------------------------- |
e----------------------------------/

guitar 2
e--------------------------------------\
b-------------------------------------- |
g-----------------8-8-8-8-8-10-10-10-10 | repeat this twice. then it goes to 
d-8-8-8-8-8-8-8-8-8-8-8-8-8-10-10-10-10 | the verse
a-8-8-8-8-8-8-8-8-6-6-6-6-8--8--8--8--8 |
e-6-6-6-6-6-6-6-6----------------------/

Verse:
e--------------------------------------\
b-------------------------------------- |
g-----------------8-8-8-8-8-10-10-10-10 |  
d-8-8-8-8-8-8-8-8-8-8-8-8-8-10-10-10-10 | 
a-8-8-8-8-8-8-8-8-6-6-6-6-8--8--8--8--8 |
e-6-6-6-6-6-6-6-6----------------------/

Chorus:
e--------------------------------------------|
b--------------------------------------------|
g-8-8-8-8-----------------8-8-8-8------------|
d-8-8-8-8-8-8-8-8-8-8-8-8-8-8-8-8-10-10-10-10|
a-6-6-6-6-8-8-8-8-8-8-8-8-6-6-6-6-8--8--8--8-|
e---------6-6-6-6-6-6-6-6--------------------|
 
there is an instrumental right here.

e-----------------------------------------------------------------\
b----------------------------------------------------------------- | let 
g---------------------------------------------------8~~~~~~~~10~~~ | these
d-5~~~~7~~~~8~~~~5~~~~7~~~~8~~~~5~~~~7~~~~8~~~~10~~~8~~~~~~~~10~~~ | notes
a-5~~~~7~~~~8~~~~5~~~~7~~~~8~~~~5~~~~7~~~~8~~~~10~~~6~~~~~~~~8~~~~ |  ring
e-3~~~~5~~~~6~~~~3~~~~5~~~~6~~~~3~~~~5~~~~6~~~~8~~~~--------------/

the order of the song is this:
intro
verse
chorus
intro
verse
chorus
intstrumental
intro
chorus
intro



that should be just about it, i'm not positive about the chorus so let me know so 
we can make this tab first rate 

Tap to rate this tab
# A B C D E F G H I J K L M N O P Q R S T U V W X Y Z