Guitaretab - guitar tabs
Song name
# A B C D E F G H I J K L M N O P Q R S T U V W X Y Z

Misc Unsigned Bands - The Friends You Never Had - Just Another Life tab

-------------------------------------------------------------------------------
                Just Another Life - The Friends You Never Had
-------------------------------------------------------------------------------

Tabbed by: Dan Wright
Email: muzikvlr1714@yahoo.com

Tuning: Standard (eBGDAE)

Guitar 1:
    1   +   2   +   3   +   4   +      1   +   2   +   3   +   4   +
e|----------------------------------|----------------------------------|
B|----------7-------7-------7-------|----------7-------7-------7-------|
G|--r---6-------6-------6-------6---|--r---4-------4-------4-------4---|
D|----------------------------------|----------------------------------|
A|----------------------------------|----------------------------------|
E|----------------------------------|----------------------------------|
                                                                       |
Guitar 2:                                                              |
    1   +   2   +   3   +   4   +      1   +   2   +   3   +   4   +   |
e|----------------------------------|----------------------------------|
B|----------------------------------|----------------------------------|
G|----------------------------------|----------------------------------|
D|--4---------------------------4---|--2---------------------------2---|
A|----------------------------------|----------------------------------|
E|--2---------------------------2---|--0---------------------------0---|

Guitar 1:
    1   +   2   +   3   +   4   +      1   +   2   +   3   +   4   +
e|----------2-------2-------2-------|----------1-------1-------1-------|
B|----------------------------------|----------------------------------|
G|--r---2-------2-------2-------2---|--r---1-------1-------1-------1---|
D|----------------------------------|----------------------------------|
A|----------------------------------|----------------------------------|
E|----------------------------------|----------------------------------|
                                                                       |
Guitar 2:                                                              |
    1   +   2   +   3   +   4   +      1   +   2   +   3   +   4   +   |
e|----------------------------------|----------------------------------|
B|----------------------------------|----------------------------------|
G|----------------------------------|----------------------------------|
D|--0---------------------------0---|----------------------------------|
A|----------------------------------|--4---------------------------4---|
E|----------------------------------|----------------------------------|

Guitar 1:
    1   +   2   +   3   +   4   +      1   +   2   +   3   +   4   +
e|----------------------------------|----------------------------------|
B|----------7-------7-------7-------|----------7-------7-------7-------|
G|--r---6-------6-------6-------6---|--r---4-------4-------4-------4---|
D|----------------------------------|----------------------------------|
A|----------------------------------|----------------------------------|
E|----------------------------------|----------------------------------|
                                                                       |
Guitar 2:                                                              |
    1   +   2   +   3   +   4   +      1   +   2   +   3   +   4   +   |
e|----------------------------------|----------------------------------|
B|----------------------------------|----------------------------------|
G|----------------------------------|----------------------------------|
D|--4---------------------------4---|--2---------------------------2---|
A|----------------------------------|----------------------------------|
E|--2---------------------------2---|--0---------------------------0---|
                                                                       |
Guitar 3:                                                              |
    1   +   2   +   3   +   4   +      1   +   2   +   3   +   4   +   |
e|--9---r-------------------10----9-|--7-----------------------9-----7-|
B|----------------------------------|----------------------------------|
G|----------------------------------|----------------------------------|
D|----------------------------------|----------------------------------|
A|----------------------------------|----------------------------------|
E|----------------------------------|----------------------------------|

Guitar 1:
    1   +   2   +   3   +   4   +      1   +   2   +   3   +   4   +
e|----------2-------2-------2-------|----------1-------1-------1-------|
B|----------------------------------|----------------------------------|
G|--r---2-------2-------2-------2---|--r---1-------1-------1-------1---|
D|----------------------------------|----------------------------------|
A|----------------------------------|----------------------------------|
E|----------------------------------|----------------------------------|
                                                                       |
Guitar 2:                                                              |
    1   +   2   +   3   +   4   +      1   +   2   +   3   +   4   +   |
e|----------------------------------|----------------------------------|
B|----------------------------------|----------------------------------|
G|----------------------------------|----------------------------------|
D|--0---------------------------0---|----------------------------------|
A|----------------------------------|--4---------------------------4---|
E|----------------------------------|----------------------------------|
                                                                       |
Guitar 3:                                                              |
    1   +   2   +   3   +   4   +      1   +   2   +   3   +   4   +   |
e|--5---r-------------------7-----5-|--4---r---------------9-----------|
B|----------------------------------|----------------------------------|
G|----------------------------------|----------------------------------|
D|----------------------------------|----------------------------------|
A|----------------------------------|----------------------------------|
E|----------------------------------|----------------------------------|

Guitar 1:
    1   +   2   +   3   +   4   +      1   +   2   +   3   +   4   +
e|----------------------------------|----------------------------------|
B|----------7-------7-------7-------|----------7-------7-------7-------|
G|--r---6-------6-------6-------6---|--r---4-------4-------4-------4---|
D|----------------------------------|----------------------------------|
A|----------------------------------|----------------------------------|
E|----------------------------------|----------------------------------|
                                                                       |
Guitar 2:                                                              |
    1   +   2   +   3   +   4   +      1   +   2   +   3   +   4   +   |
e|----------------------------------|----------------------------------|
B|----------------------------------|----------------------------------|
G|----------------------------------|----------------------------------|
D|--4---------------------------4---|--2---------------------------2---|
A|----------------------------------|----------------------------------|
E|--2---------------------------2---|--0---------------------------0---|
                                                                       |
Guitar 3:                                                              |
    1   +   2   +   3   +   4   +      1   +   2   +   3   +   4   +   |
e|--9---r-------------------10----9-|--7---r-------------------9-----7-|
B|----------------------------------|----------------------------------|
G|----------------------------------|----------------------------------|
D|----------------------------------|----------------------------------|
A|----------------------------------|----------------------------------|
E|----------------------------------|----------------------------------|

Guitar 1:
    1   +   2   +   3   +   4   +      1   +   2   +   3   +   4   +
e|----------2-------2-------2-------|----------1-------1-------1-------|
B|----------------------------------|----------------------------------|
G|--r---2-------2-------2-------2---|--r---1-------1-------1-------1---|
D|----------------------------------|----------------------------------|
A|----------------------------------|----------------------------------|
E|----------------------------------|----------------------------------|
                                                                       |
Guitar 2:                                                              |
    1   +   2   +   3   +   4   +      1   +   2   +   3   +   4   +   |
e|----------------------------------|----------------------------------|
B|----------------------------------|----------------------------------|
G|----------------------------------|----------------------------------|
D|--0---------------------------0---|----------------------------------|
A|----------------------------------|--4---------------------------4---|
E|----------------------------------|----------------------------------|
                                                                       |
Guitar 3:                                                              |
    1   +   2   +   3   +   4   +      1   +   2   +   3   +   4   +   |
e|--5---r-------------------7---5---|--4---r---------------9-----------|
B|----------------------------------|----------------------------------|
G|----------------------------------|----------------------------------|
D|----------------------------------|----------------------------------|
A|----------------------------------|----------------------------------|
E|----------------------------------|----------------------------------|

Guitar 1:
    1   +   2   +   3   +   4   +      1   +   2   +   3   +   4   +
e|--2-------------------------------|-(2)------------------------------|
B|--2-------------------------------|-(2)------------------------------|
G|--2-------------------------------|-(2)------------------------------|
D|--4-------------------------------|-(4)------------------------------|
A|--4-------------------------------|-(4)------------------------------|
E|--2-------------------------------|-(2)------------------------------|
                                                                       |
Guitar 2:                                                              |
    1   +   2   +   3   +   4   +      1   +   2   +   3   +   4   +   |
e|----------------------------------|----------------------------------|
B|----------------------------------|----------------------------------|
G|--11------------------------------|----------------------------------|
D|--11------------------------------|----------------------------------|
A|--9-------------------------------|----------------------------------|
E|--9-------------------------------|----------------------------------|

Guitar 1:
    1   +   2   +   3   +   4   +      1   +   2   +   3   +   4   +
e|-(2)------------------------------|----------------------------------|
B|-(2)------------------------------|----------------------------------|
G|-(2)------------------------------|----------------------------------|
D|-(4)------------------------------|------7---4---5---4---5---4---7---|
A|-(4)------------------------------|--0-------------------------------|
E|-(2)------------------------------|----------------------------------|
                                                                       |
Guitar 2:                                                              |
    1   +   2   +   3   +   4   +      1   +   2   +   3   +   4   +   |
e|----------------------------------|--5---5---r-----------------------|
B|----------------------------------|--5---5---r-----------------------|
G|----------------------------------|--6---6---r-----------------------|
D|----------------------------------|--7---7---r-----------------------|
A|----------------------------------|--7---7---r-----------------------|
E|----------------------------------|--5---5---r-----------------------|

Guitar 1:
    1   +   2   +   3   +   4   +      1   +   2   +   3   +   4   +
e|----------------------------------|----------------------------------|
B|----------------------------------|----------------------------------|
G|----------------------------------|----------------------------------|
D|------7---5---4---5---4---2-------|------7---5---4---5---4---5---7---|
A|--0-------------------------------|--0-------------------------------|
E|----------------------------------|----------------------------------|
                                                                       |
Guitar 2:                                                              |
    1   +   2   +   3   +   4   +      1   +   2   +   3   +   4   +   |
e|--5---5---r-----------------------|--5---5---r-----------------------|
B|--5---5---r-----------------------|--5---5---r-----------------------|
G|--6---6---r-----------------------|--6---6---r-----------------------|
D|--7---7---r-----------------------|--7---7---r-----------------------|
A|--7---7---r-----------------------|--7---7---r-----------------------|
E|--5---5---r-----------------------|--5---5---r-----------------------|

Guitar 1:
    1   +   2   +   3   +   4   +      1   +   2   +   3   +   4   +
e|----------------------------------|----------------------------------|
B|------------------8---7-----------|----------------------------------|
G|--------------------------7-------|----------------------------------|
D|------7---5---4-------------------|------7---5---4---5---4---5---7---|
A|--0-------------------------------|--0-------------------------------|
E|----------------------------------|----------------------------------|
                                                                       |
Guitar 2:                                                              |
    1   +   2   +   3   +   4   +      1   +   2   +   3   +   4   +   |
e|----------------------------------|----------------------------------|
B|----------------------------------|----------------------------------|
G|----------------------------------|----------------------------------|
D|--7---7---7---7---7---7---7-------|--7---7---r---7---x---7---x---7---|
A|--7---7---7---7---7---7---7-------|--7---7---r---7---x---7---x---7---|
E|--5---5---5---5---5---5---5-------|--5---5---r---5---x---5---x---5---|

Guitar 1:
    1   +   2   +   3   +   4   +      1   +   2   +   3   +   4   +
e|----------------------------------|----------------------------------|
B|----------------------------------|----------------------------------|
G|----------------------------------|--12--12--x---12--x---12--x---12--|
D|------7---5---4---5---4---2-------|--12--12--x---12--x---12--x---12--|
A|--0-------------------------------|--10--10--x---10--x---10--x---10--|
E|----------------------------------|----------------------------------|
                                                                       |
Guitar 2:                                                              |
    1   +   2   +   3   +   4   +      1   +   2   +   3   +   4   +   |
e|----------------------------------|------17--15--14--15--14--15--17--|
B|----------------------------------|----------------------------------|
G|----------------------------------|--14------------------------------|
D|--7---7---x---7---x---7---x---7---|----------------------------------|
A|--7---7---x---7---x---7---x---7---|----------------------------------|
E|--5---5---x---5---x---5---x---5---|----------------------------------|

Guitar 1:
    1   +   2   +   3   +   4   +      1   +   2   +   3   +   4   +
e|----------------------------------|----------------------------------|
B|----------------------------------|----------------------------------|
G|--12--12--12--12--12--x-----------|----------------------------------|
D|--12--12--12--12--12--x---11------|--7---7---7---7---7---7---7---7---|
A|--10--10--10--10--10--x---11------|--7---7---7---7---7---7---7---7---|
E|--------------------------9-------|--5---5---5---5---5---5---5---5---|
                                                   Another             |
Guitar 2:                                                              |
    1   +   2   +   3   +   4   +      1   +   2   +   3   +   4   +   |
e|------17--15--14--15--x---21------|----------------------------------|
B|----------------------------------|----------------------------------|
G|--14------------------------------|----------------------------------|
D|----------------------------------|----------------------------------|
A|----------------------------------|----------------------------------|
E|----------------------------------|----------------------------------|

    1   +   2   +   3   +   4   +      1   +   2   +   3   +   4   +
e|----------------------------------|----------------------------------|
B|----------------------------------|----------------------------------|
G|----------------------------------|----------------------------------|
D|--6---6---6---6---6---6---6---6---|--4---4---4---4---4---4---4---4---|
A|--6---6---6---6---6---6---6---6---|--4---4---4---4---4---4---4---4---|
E|--4---4---4---4---4---4---4---4---|--2---2---2---2---2---2---2---2---|
     day has just                            begun. Another one

    1   +   2   +   3   +   4   +      1   +   2   +   3   +   4   +
e|----------------------------------|----------------------------------|
B|----------------------------------|----------------------------------|
G|--7---7---7---7---7---7---7---7---|----------------------------------|
D|--7---7---7---7---7---7---7---7---|--7---7---7---7---7---7---7---7---|
A|--5---5---5---5---5---5---5---5---|--7---7---7---7---7---7---7---7---|
E|----------------------------------|--5---5---5---5---5---5---5---5---|
     full of lies and                     fears. Canít bear to

    1   +   2   +   3   +   4   +      1   +   2   +   3   +   4   +
e|----------------------------------|----------------------------------|
B|----------------------------------|----------------------------------|
G|----------------------------------|----------------------------------|
D|--6---6---6---6---6---6---6---6---|--4---4---4---4---4---4---4---4---|
A|--6---6---6---6---6---6---6---6---|--4---4---4---4---4---4---4---4---|
E|--4---4---4---4---4---4---4---4---|--2---2---2---2---2---2---2---2---|
   get out of bed at                        all

Guitar 1:
    1   +   2   +   3   +   4   +      1   +   2   +   3   +   4   +
e|----------------------------------|----------------------------------|
B|----------------------------------|----------------------------------|
G|--7---x---6---x---4---x---2---x---|----------------------------------|
D|--7---x---6---x---4---x---2---x---|--7---7---7---7---7---7---7---7---|
A|--5---x---4---x---2---x---0---x---|--7---7---7---7---7---7---7---7---|
E|----------------------------------|--5---5---5---5---5---5---5---5---|
                                           Why are you                 |
Guitar 2:                                                              |
    1   +   2   +   3   +   4   +      1   +   2   +   3   +   4   +   |
e|----------------------------------|----------------------------------|
B|----------------------------------|----------------------------------|
G|----------------------------------|----------------------------------|
D|--x---2---x---2---x---2---x---4---|----------------------------------|
A|--x---2---x---2---x---2---x---4---|----------------------------------|
E|--x---0---x---0---x---0---x---2---|----------------------------------|

Guitar 1:
    1   +   2   +   3   +   4   +      1   +   2   +   3   +   4   +
e|----------------------------------|----------------------------------|
B|----------------------------------|----------------------------------|
G|----------------------------------|----------------------------------|
D|--6---6---6---6---6---6---6---6---|--4---4---4---4---4---4---4---4---|
A|--6---6---6---6---6---6---6---6---|--4---4---4---4---4---4---4---4---|
E|--4---4---4---4---4---4---4---4---|--2---2---2---2---2---2---2---2---|
        afraid to take a                   chance, ĎCause of your

    1   +   2   +   3   +   4   +      1   +   2   +   3   +   4   +
e|----------------------------------|----------------------------------|
B|----------------------------------|----------------------------------|
G|--7---7---7---7---7---7---7---7---|----------------------------------|
D|--7---7---7---7---7---7---7---7---|--7---7---7---7---7---7---7---7---|
A|--5---5---5---5---5---5---5---5---|--7---7---7---7---7---7---7---7---|
E|----------------------------------|--5---5---5---5---5---5---5---5---|
      failures and heart--              --breaks. But canít you

    1   +   2   +   3   +   4   +      1   +   2   +   3   +   4   +
e|----------------------------------|----------------------------------|
B|----------------------------------|----------------------------------|
G|----------------------------------|----------------------------------|
D|--6---6---6---6---6---6---6---6---|--4---4---4---4---4---4---4---4---|
A|--6---6---6---6---6---6---6---6---|--4---4---4---4---4---4---4---4---|
E|--4---4---4---4---4---4---4---4---|--2---2---2---2---2---2---2---2---|
     see that itís not                     real. So wipe your
Guitar 1:
    1   +   2   +   3   +   4   +      1   +   2   +   3   +   4   +
e|----------------------------------|----------------------------------|
B|----------------------------------|----------------------------------|
G|--7---7---7---7---7---7---7---7---|--9-------------------------------|
D|--7---7---7---7---7---7---7---7---|--9-------------------------------|
A|--5---5---5---5---5---5---5---5---|--7-------------------------------|
E|----------------------------------|----------------------------------|
             tears                                                     |
Guitar 2:                                                              |
    1   +   2   +   3   +   4   +      1   +   2   +   3   +   4   +   |
e|----------------------------------|----------------------------------|
B|----------------------------------|----------------------------------|
G|----------------------------------|--9---x---11--x---13--------------|
D|----------------------------------|--9---x---11--x---13--------------|
A|----------------------------------|--7---x---9---x---11--------------|
E|----------------------------------|----------------------------------|

Guitar 1:
    1   +   2   +   3   +   4   +      1   +   2   +   3   +   4   +
e|----------------------------------|----------------------------------|
B|----------------------------------|----------------------------------|
G|----------------------------------|--7---7---7---7---7---7---7---7---|
D|--7---7---7---7---7---7---7---7---|--7---7---7---7---7---7---7---7---|
A|--7---7---7---7---7---7---7---7---|--5---5---5---5---5---5---5---5---|
E|--5---5---5---5---5---5---5---5---|----------------------------------|
       Just stop and                        close your eyes            |
Guitar 2:                                                              |
    1   +   2   +   3   +   4   +      1   +   2   +   3   +   4   +   |
e|----------------------------------|----------------------------------|
B|----------------------------------|----------------------------------|
G|--14--14--14--14--14--14--16--14--|--14--14--14--14--14--14--16--14--|
D|--14--14--14--14--14--14--16--14--|--14--14--14--14--14--14--16--14--|
A|--12--12--12--12--12--12--14--12--|--12--12--12--12--12--12--14--12--|
E|----------------------------------|----------------------------------|

Guitar 1:
    1   +   2   +   3   +   4   +
e|----------------------------------|
B|----------------------------------|
G|--11--11--11--11--11--11--11--11--|
D|--11--11--11--11--11--11--11--11--|
A|--9---9---9---9---9---9---9---9---|
E|----------------------------------|
       See a world better           |
Guitar 2:                           |
    1   +   2   +   3   +   4   +   |
e|----------------------------------|
B|----------------------------------|
G|--14--14--14--14--14--14--16--14--|
D|--14--14--14--14--14--14--16--14--|
A|--12--12--12--12--12--12--14--12--|
E|----------------------------------|

Guitar 1:
    1   +   2   +   3   +   4   +      1   +   2   +   3   +   4   +
e|----------------------------------|----------------------------------|
B|----------------------------------|----------------------------------|
G|--9---9---9---9---9---9---9---9---|----------------------------------|
D|--9---9---9---9---9---9---9---9---|--7---7---7---7---7---7---7---7---|
A|--7---7---7---7---7---7---7---7---|--7---7---7---7---7---7---7---7---|
E|----------------------------------|--5---5---5---5---5---5---5---5---|
       than this                             And donít ever            |
Guitar 2:                                                              |
    1   +   2   +   3   +   4   +      1   +   2   +   3   +   4   +   |
e|----------------------------------|----------------------------------|
B|----------------------------------|----------------------------------|
G|--18--18--18--9---9---9---9---9---|--14--14--14--14--14--14--16--14--|
D|--18--18--18--9---9---9---9---9---|--14--14--14--14--14--14--16--14--|
A|--16--16--16--7---7---7---7---7---|--12--12--12--12--12--12--14--12--|
E|----------------------------------|----------------------------------|

Guitar 1:
    1   +   2   +   3   +   4   +      1   +   2   +   3   +   4   +
e|----------------------------------|----------------------------------|
B|----------------------------------|----------------------------------|
G|--7---7---7---7---7---7---7---7---|--11--11--11--11--11--11--11--11--|
D|--7---7---7---7---7---7---7---7---|--11--11--11--11--11--11--11--11--|
A|--5---5---5---5---5---5---5---5---|--9---9---9---9---9---9---9---9---|
E|----------------------------------|----------------------------------|
          say good-bye                       Cause you never           |
Guitar 2:                                                              |
    1   +   2   +   3   +   4   +      1   +   2   +   3   +   4   +   |
e|----------------------------------|----------------------------------|
B|----------------------------------|----------------------------------|
G|--14--14--14--14--14--14--16--14--|--14--14--14--14--14--14--16--14--|
D|--14--14--14--14--14--14--16--14--|--14--14--14--14--14--14--16--14--|
A|--12--12--12--12--12--12--14--12--|--12--12--12--12--12--12--14--12--|
E|----------------------------------|----------------------------------|

Guitar 1:
    1   +   2   +   3   +   4   +      1   +   2   +   3   +   4   +
e|----------------------------------|----------------------------------|
B|----------------------------------|----------------------------------|
G|--9---9---9---9---9---9---9---9---|----------------------------------|
D|--9---9---9---9---9---9---9---9---|------7---5---4---5---4---5---7---|
A|--7---7---7---7---7---7---7---7---|--0-------------------------------|
E|----------------------------------|----------------------------------|
        know what you might miss                                       |
Guitar 2:                                                              |
    1   +   2   +   3   +   4   +      1   +   2   +   3   +   4   +   |
e|----------------------------------|----------------------------------|
B|----------------------------------|----------------------------------|
G|--18--18--18--9---9---9---9---9---|----------------------------------|
D|--18--18--18--9---9---9---9---9---|--7---7---x---7---x---7---x---7---|
A|--16--16--16--7---7---7---7---7---|--7---7---x---7---x---7---x---7---|
E|----------------------------------|--5---5---x---5---x---5---x---5---|

Guitar 1:
    1   +   2   +   3   +   4   +      1   +   2   +   3   +   4   +
e|----------------------------------|----------------------------------|
B|----------------------------------|----------------------------------|
G|----------------------------------|----------------------------------|
D|------7---5---4---5---4---2-------|------7---5---4---5---4---5---7---|
A|--0-------------------------------|--0-------------------------------|
E|----------------------------------|----------------------------------|
                                                                       |
Guitar 2:                                                              |
    1   +   2   +   3   +   4   +      1   +   2   +   3   +   4   +   |
e|----------------------------------|----------------------------------|
B|----------------------------------|----------------------------------|
G|----------------------------------|----------------------------------|
D|--7---7---x---7---x---7---x---7---|--7---7---x---7---x---7---x---7---|
A|--7---7---x---7---x---7---x---7---|--7---7---x---7---x---7---x---7---|
E|--5---5---x---5---x---5---x---5---|--5---5---x---5---x---5---x---5---|

Guitar 1:
    1   +   2   +   3   +   4   +      1   +   2   +   3   +   4   +
e|----------------------------------|----------------------------------|
B|----------------------------------|----------------------------------|
G|----------------------------------|----------------------------------|
D|--7-------/-------11--------------|----------7-----------7-------7---|
A|--7-------/-------11--------------|----------7-----------7-------7---|
E|--5-------/-------11--------------|--5---5---5---5---5---5---5---5---|
                                            All of your tears          |
Guitar 2:                                                              |
    1   +   2   +   3   +   4   +      1   +   2   +   3   +   4   +   |
e|----------------------------------|----------------------------------|
B|--10------/-------14--------------|----------------------------------|
G|----------------------------------|----------------------------------|
D|----------------------------------|--7---7---7---7---7---7---7---7---|
A|----------------------------------|--7---7---7---7---7---7---7---7---|
E|----------------------------------|--5---5---5---5---5---5---5---5---|

Guitar 1:
    1   +   2   +   3   +   4   +      1   +   2   +   3   +   4   +
e|----------------------------------|----------------------------------|
B|----------------------------------|----------------------------------|
G|----------------------------------|----------------------------------|
D|----------6-----------6-------6---|----------4-----------4-------4---|
A|----------6-----------6-------6---|----------4-----------4-------4---|
E|--4---4---4---4---4---4---4---4---|--2---2---2---2---2---2---2---2---|
        have taken their toll                 Thereís not a            |
Guitar 2:                                                              |
    1   +   2   +   3   +   4   +      1   +   2   +   3   +   4   +   |
e|----------------------------------|----------------------------------|
B|----------------------------------|----------------------------------|
G|----------------------------------|----------------------------------|
D|--6---6---6---6---6---6---6---6---|--4---4---4---4---4---4---4---4---|
A|--6---6---6---6---6---6---6---6---|--4---4---4---4---4---4---4---4---|
E|--4---4---4---4---4---4---4---4---|--2---2---2---2---2---2---2---2---|
[ Tab from: http://www.guitaretab.com/m/misc-unsigned-bands/189718.html ]
Guitar 1:
    1   +   2   +   3   +   4   +      1   +   2   +   3   +   4   +
e|----------------------------------|----------------------------------|
B|----------------------------------|----------------------------------|
G|----------7-----------7-------7---|----------------------------------|
D|----------7-----------7-------7---|----------7-----------7-------7---|
A|--5---5---5---5---5---5---5---5---|----------7-----------7-------7---|
E|----------------------------------|--5---5---5---5---5---5---5---5---|
        thing left of your soul            But there is                |
Guitar 2:                                                              |
    1   +   2   +   3   +   4   +      1   +   2   +   3   +   4   +   |
e|----------------------------------|----------------------------------|
B|----------------------------------|----------------------------------|
G|--7---7---7---7---7---7---7---7---|----------------------------------|
D|--7---7---7---7---7---7---7---7---|--7---7---7---7---7---7---7---7---|
A|--5---5---5---5---5---5---5---5---|--7---7---7---7---7---7---7---7---|
E|----------------------------------|--5---5---5---5---5---5---5---5---|

Guitar 1:
    1   +   2   +   3   +   4   +      1   +   2   +   3   +   4   +
e|----------------------------------|----------------------------------|
B|----------------------------------|----------------------------------|
G|----------------------------------|----------------------------------|
D|----------6-----------6-------6---|----------4-----------4-------4---|
A|----------6-----------6-------6---|----------4-----------4-------4---|
E|--4---4---4---4---4---4---4---4---|--2---2---2---2---2---2---2---2---|
         nothing you can do                  Youíve lost control       |
Guitar 2:                                                              |
    1   +   2   +   3   +   4   +      1   +   2   +   3   +   4   +   |
e|----------------------------------|----------------------------------|
B|----------------------------------|----------------------------------|
G|----------------------------------|----------------------------------|
D|--6---6---6---6---6---6---6---6---|--4---4---4---4---4---4---4---4---|
A|--6---6---6---6---6---6---6---6---|--4---4---4---4---4---4---4---4---|
E|--4---4---4---4---4---4---4---4---|--2---2---2---2---2---2---2---2---|

Guitar 1:
    1   +   2   +   3   +   4   +      1   +   2   +   3   +   4   +
e|----------------------------------|----------------------------------|
B|------7-------6-------4-------2---|----------------------------------|
G|------7-------6-------4-------2---|----------7-----------7-------7---|
D|--5---5---4---4---2---2---0---0---|----------7-----------7-------7---|
A|----------------------------------|--5---5---5---5---5---5---5---5---|
                                            No way to                  |
Guitar 2:                                                              |
    1   +   2   +   3   +   4   +      1   +   2   +   3   +   4   +   |
e|----------------------------------|----------------------------------|
B|----------------------------------|----------------------------------|
G|----------------------------------|----------------------------------|
D|--2---x---2---x---2---x---4---x---|--7---7---7---7---7---7---7---7---|
A|--2---x---2---x---2---x---4---x---|--7---7---7---7---7---7---7---7---|
E|--0---x---0---x---0---x---2---x---|--5---5---5---5---5---5---5---5---|

Guitar 1:
    1   +   2   +   3   +   4   +      1   +   2   +   3   +   4   +
e|----------------------------------|----------------------------------|
B|----------------------------------|----------------------------------|
G|----------------------------------|----------------------------------|
D|----------6-----------6-------6---|----------4-----------4-------4---|
A|----------6-----------6-------6---|----------4-----------4-------4---|
E|--4---4---4---4---4---4---4---4---|--2---2---2---2---2---2---2---2---|
        break out of this hell             The harder you              |
Guitar 2:                                                              |
    1   +   2   +   3   +   4   +      1   +   2   +   3   +   4   +   |
e|----------------------------------|----------------------------------|
B|----------------------------------|----------------------------------|
G|----------------------------------|----------------------------------|
D|--6---6---6---6---6---6---6---6---|--4---4---4---4---4---4---4---4---|
A|--6---6---6---6---6---6---6---6---|--4---4---4---4---4---4---4---4---|
E|--4---4---4---4---4---4---4---4---|--2---2---2---2---2---2---2---2---|

Guitar 1:
    1   +   2   +   3   +   4   +      1   +   2   +   3   +   4   +
e|----------------------------------|----------------------------------|
B|----------------------------------|----------------------------------|
G|----------7-----------7-------7---|----------------------------------|
D|----------7-----------7-------7---|----------7-----------7-------7---|
A|--5---5---5---5---5---5---5---5---|----------7-----------7-------7---|
E|----------------------------------|--5---5---5---5---5---5---5---5---|
       try the harder you fall                 So why not just         |
Guitar 2:                                                              |
    1   +   2   +   3   +   4   +      1   +   2   +   3   +   4   +   |
e|----------------------------------|----------------------------------|
B|----------------------------------|----------------------------------|
G|--7---7---7---7---7---7---7---7---|----------------------------------|
D|--7---7---7---7---7---7---7---7---|--7---7---7---7---7---7---7---7---|
A|--5---5---5---5---5---5---5---5---|--7---7---7---7---7---7---7---7---|
E|----------------------------------|--5---5---5---5---5---5---5---5---|

Guitar 1:
    1   +   2   +   3   +   4   +      1   +   2   +   3   +   4   +
e|----------------------------------|----------------------------------|
B|----------------------------------|----------------------------------|
G|----------------------------------|----------------------------------|
D|----------6-----------6-------6---|----------4-----------4-------4---|
A|----------6-----------6-------6---|----------4-----------4-------4---|
E|--4---4---4---4---4---4---4---4---|--2---2---2---2---2---2---2---2---|
        live for this moment                Letís scream               |
Guitar 2:                                                              |
    1   +   2   +   3   +   4   +      1   +   2   +   3   +   4   +   |
e|----------------------------------|----------------------------------|
B|----------------------------------|----------------------------------|
G|----------------------------------|----------------------------------|
D|--6---6---6---6---6---6---6---6---|--4---4---4---4---4---4---4---4---|
A|--6---6---6---6---6---6---6---6---|--4---4---4---4---4---4---4---4---|
E|--4---4---4---4---4---4---4---4---|--2---2---2---2---2---2---2---2---|

Guitar 1:
    1   +   2   +   3   +   4   +      1   +   2   +   3   +   4   +
e|----------------------------------|----------------------------------|
B|----------------------------------|--9-----------------------9---12--|
G|--7---7---7---7---7---7---7---7---|------9---------------9-----------|
D|--7---7---7---7---7---7---7---7---|----------9-------9---------------|
A|--5---5---5---5---5---5---5---5---|--------------7-------------------|
E|----------------------------------|----------------------------------|
        out                                                            |
Guitar 2:                                                              |
    1   +   2   +   3   +   4   +      1   +   2   +   3   +   4   +   |
e|----------------------------------|----------------------------------|
B|----------------------------------|----------------------------------|
G|--7---7---7---7---7---7---7---7---|--9-------------------------------|
D|--7---7---7---7---7---7---7---7---|--9-------------------------------|
A|--5---5---5---5---5---5---5---5---|--7-------------------------------|
E|----------------------------------|----------------------------------|

Guitar 1:
    1   +   2   +   3   +   4   +      1   +   2   +   3   +   4   +
e|----------------------------------|----------------------------------|
B|----------------------------------|----------------------------------|
G|----------------------------------|--7---7---7---7---7---7---7---7---|
D|--7---7---7---7---7---7---7---7---|--7---7---7---7---7---7---7---7---|
A|--7---7---7---7---7---7---7---7---|--5---5---5---5---5---5---5---5---|
E|--5---5---5---5---5---5---5---5---|----------------------------------|
       Just stop and                        close your eyes            |
Guitar 2:                                                              |
    1   +   2   +   3   +   4   +      1   +   2   +   3   +   4   +   |
e|----------------------------------|----------------------------------|
B|----------------------------------|----------------------------------|
G|--14--14--14--14--14--14--16--14--|--14--14--14--14--14--14--16--14--|
D|--14--14--14--14--14--14--16--14--|--14--14--14--14--14--14--16--14--|
A|--12--12--12--12--12--12--14--12--|--12--12--12--12--12--12--14--12--|
E|----------------------------------|----------------------------------|

Guitar 1:
    1   +   2   +   3   +   4   +      1   +   2   +   3   +   4   +
e|----------------------------------|----------------------------------|
B|----------------------------------|----------------------------------|
G|--11--11--11--11--11--11--11--11--|--9---9---9---9---9---9---9---9---|
D|--11--11--11--11--11--11--11--11--|--9---9---9---9---9---9---9---9---|
A|--9---9---9---9---9---9---9---9---|--7---7---7---7---7---7---7---7---|
E|----------------------------------|----------------------------------|
         See a world better                  than this                 |
Guitar 2:                                                              |
    1   +   2   +   3   +   4   +      1   +   2   +   3   +   4   +   |
e|----------------------------------|----------------------------------|
B|----------------------------------|----------------------------------|
G|--14--14--14--14--14--14--16--14--|--18--18--18--9---9---9---9---9---|
D|--14--14--14--14--14--14--16--14--|--18--18--18--9---9---9---9---9---|
A|--12--12--12--12--12--12--14--12--|--16--16--16--7---7---7---7---7---|
E|----------------------------------|----------------------------------|

Guitar 1:
    1   +   2   +   3   +   4   +      1   +   2   +   3   +   4   +
e|----------------------------------|----------------------------------|
B|----------------------------------|----------------------------------|
G|----------------------------------|--7---7---7---7---7---7---7---7---|
D|--7---7---7---7---7---7---7---7---|--7---7---7---7---7---7---7---7---|
A|--7---7---7---7---7---7---7---7---|--5---5---5---5---5---5---5---5---|
E|--5---5---5---5---5---5---5---5---|----------------------------------|
       And donít ever                           say good-bye           |
Guitar 2:                                                              |
    1   +   2   +   3   +   4   +      1   +   2   +   3   +   4   +   |
e|----------------------------------|----------------------------------|
B|----------------------------------|----------------------------------|
G|--14--14--14--14--14--14--16--14--|--14--14--14--14--14--14--16--14--|
D|--14--14--14--14--14--14--16--14--|--14--14--14--14--14--14--16--14--|
A|--12--12--12--12--12--12--14--12--|--12--12--12--12--12--12--14--12--|
E|----------------------------------|----------------------------------|

Guitar 1:
    1   +   2   +   3   +   4   +      1   +   2   +   3   +   4   +
e|----------------------------------|----------------------------------|
B|----------------------------------|----------------------------------|
G|--11--11--11--11--11--11--11--11--|--9---9---9---9---9---9---9---9---|
D|--11--11--11--11--11--11--11--11--|--9---9---9---9---9---9---9---9---|
A|--9---9---9---9---9---9---9---9---|--7---7---7---7---7---7---7---7---|
E|----------------------------------|----------------------------------|
        ĎCause you never know              what you might miss         |
Guitar 2:                                                              |
    1   +   2   +   3   +   4   +      1   +   2   +   3   +   4   +   |
e|----------------------------------|----------------------------------|
B|----------------------------------|----------------------------------|
G|--16--16--16--16--16--16--16--14--|--18--18--18--9---9---9---9---9---|
D|--14--14--14--14--14--14--16--14--|--18--18--18--9---9---9---9---9---|
A|--12--12--12--12--12--12--14--12--|--16--16--16--7---7---7---7---7---|
E|----------------------------------|----------------------------------|

Guitar 1:
    1   +   2   +   3   +   4   +      1   +   2   +   3   +   4   +
e|----------------------------------|----------------------------------|
B|----------------------------------|----------------------------------|
G|--r-------------------------------|----------------------------------|
D|--r-------------------------------|----------------------------------|
A|--r-------------------------------|----------------------------------|
E|----------------------------------|----------------------------------|
                                                                       |
Guitar 2:                                                              |
    1   +   2   +   3   +   4   +      1   +   2   +   3   +   4   +   |
e|----------------------------------|----------------------------------|
B|----------------------------------|----------------------------------|
G|--r-------------------------------|----------------------------------|
D|--r-------------------------------|----------------------------------|
A|--r-------------------------------|--7---7---7---7---7---7---7---7---|
E|----------------------------------|--5---5---5---5---5---5---5---5---|

Guitar 1:
    1   +   2   +   3   +   4   +      1   +   2   +   3   +   4   +
e|----------------------------------|----------------------------------|
B|----------------------------------|----------------------------------|
G|----------------------------------|----------------------------------|
D|----------------------------------|----------------------------------|
A|----------------------------------|----------------------------------|
E|----------------------------------|----------------------------------|
                                                                       |
Guitar 2:                                                              |
    1   +   2   +   3   +   4   +      1   +   2   +   3   +   4   +   |
e|----------------------------------|----------------------------------|
B|----------------------------------|----------------------------------|
G|----------------------------------|----------------------------------|
D|--6---6---6---6---6---6---6---6---|--7---7---7---7---7---7---7---7---|
A|--4---4---4---4---4---4---4---4---|--5---5---5---5---5---5---5---5---|
E|----------------------------------|----------------------------------|

Guitar 1:
    1   +   2   +   3   +   4   +      1   +   2   +   3   +   4   +
e|----------------------------------|----------------------------------|
B|----------------------------------|----------------------------------|
G|----------------------------------|----------------------------------|
D|----------------------------------|--7---7---7---7---7---7---7---7---|
A|----------------------------------|--7---7---7---7---7---7---7---7---|
E|----------------------------------|--5---5---5---5---5---5---5---5---|
                                                                       |
Guitar 2:                                                              |
    1   +   2   +   3   +   4   +      1   +   2   +   3   +   4   +   |
e|----------------------------------|----------------------------------|
B|----------------------------------|----------------------------------|
G|----------------------------------|----------------------------------|
D|--9---9---9---9---9---9---9---9---|----------------------------------|
A|--7---7---7---7---7---7---7---7---|--7---7---7---7---7---7---7---7---|
E|----------------------------------|--5---5---5---5---5---5---5---5---|

Guitar 1:
    1   +   2   +   3   +   4   +      1   +   2   +   3   +   4   +
e|----------------------------------|----------------------------------|
B|----------------------------------|----------------------------------|
G|--6---6---6---6---6---6---6---6---|--7---7---7---7---7---7---7---7---|
D|--6---6---6---6---6---6---6---6---|--7---7---7---7---7---7---7---7---|
A|--4---4---4---4---4---4---4---4---|--5---5---5---5---5---5---5---5---|
E|----------------------------------|----------------------------------|
                                                                       |
Guitar 2:                                                              |
    1   +   2   +   3   +   4   +      1   +   2   +   3   +   4   +   |
e|----------------------------------|----------------------------------|
B|----------------------------------|----------------------------------|
G|----------------------------------|--7---7---7---7---7---7---7---7---|
D|--6---6---6---6---6---6---6---6---|--7---7---7---7---7---7---7---7---|
A|--4---4---4---4---4---4---4---4---|--5---5---5---5---5---5---5---5---|
E|----------------------------------|----------------------------------|

Guitar 1:
    1   +   2   +   3   +   4   +      1   +   2   +   3   +   4   +
e|----------------------------------|----------------------------------|
B|----------------------------------|----------------------------------|
G|--9---9---9---9---9---9---9---9---|----------------------------------|
D|--9---9---9---9---9---9---9---9---|--7---7---7---7---7---7---7---7---|
A|--7---7---7---7---7---7---7---7---|--7---7---7---7---7---7---7---7---|
E|----------------------------------|--5---5---5---5---5---5---5---5---|
                                          Just stop and                |
Guitar 2:                                                              |
    1   +   2   +   3   +   4   +      1   +   2   +   3   +   4   +   |
e|----------------------------------|----------------------------------|
B|----------------------------------|----------------------------------|
G|--9---9---9---9---9---9---9---9---|--14--14--14--14--14--14--16--14--|
D|--9---9---9---9---9---9---9---9---|--14--14--14--14--14--14--16--14--|
A|--7---7---7---7---7---7---7---7---|--12--12--12--12--12--12--14--12--|
E|----------------------------------|----------------------------------|

Guitar 1:
    1   +   2   +   3   +   4   +      1   +   2   +   3   +   4   +
e|----------------------------------|----------------------------------|
B|----------------------------------|----------------------------------|
G|--7---7---7---7---7---7---7---7---|--11--11--11--11--11--11--11--11--|
D|--7---7---7---7---7---7---7---7---|--11--11--11--11--11--11--11--11--|
A|--5---5---5---5---5---5---5---5---|--9---9---9---9---9---9---9---9---|
E|----------------------------------|----------------------------------|
     close your eyes                        See a world better         |
Guitar 2:                                                              |
    1   +   2   +   3   +   4   +      1   +   2   +   3   +   4   +   |
e|----------------------------------|----------------------------------|
B|----------------------------------|----------------------------------|
G|--14--14--14--14--14--14--16--14--|--14--14--14--14--14--14--16--14--|
D|--14--14--14--14--14--14--16--14--|--14--14--14--14--14--14--16--14--|
A|--12--12--12--12--12--12--14--12--|--12--12--12--12--12--12--14--12--|
E|----------------------------------|----------------------------------|

Guitar 1:
    1   +   2   +   3   +   4   +      1   +   2   +   3   +   4   +
e|----------------------------------|----------------------------------|
B|----------------------------------|----------------------------------|
G|--9---9---9---9---9---9---9---9---|----------------------------------|
D|--9---9---9---9---9---9---9---9---|--7---7---7---7---7---7---7---7---|
A|--7---7---7---7---7---7---7---7---|--7---7---7---7---7---7---7---7---|
E|----------------------------------|--5---5---5---5---5---5---5---5---|
           than this                         And donít ever            |
Guitar 2:                                                              |
    1   +   2   +   3   +   4   +      1   +   2   +   3   +   4   +   |
e|----------------------------------|----------------------------------|
B|----------------------------------|----------------------------------|
G|--18--18--18--9---9---9---9---9---|--14--14--14--14--14--14--16--14--|
D|--18--18--18--9---9---9---9---9---|--14--14--14--14--14--14--16--14--|
A|--16--16--16--7---7---7---7---7---|--12--12--12--12--12--12--14--12--|
E|----------------------------------|----------------------------------|

Guitar 1:
    1   +   2   +   3   +   4   +      1   +   2   +   3   +   4   +
e|----------------------------------|----------------------------------|
B|----------------------------------|----------------------------------|
G|--7---7---7---7---7---7---7---7---|--11--11--11--11--11--11--11--11--|
D|--7---7---7---7---7---7---7---7---|--11--11--11--11--11--11--11--11--|
A|--5---5---5---5---5---5---5---5---|--9---9---9---9---9---9---9---9---|
E|----------------------------------|----------------------------------|
           say good-bye                      ĎCause you never know     |
Guitar 2:                                                              |
    1   +   2   +   3   +   4   +      1   +   2   +   3   +   4   +   |
e|----------------------------------|----------------------------------|
B|----------------------------------|----------------------------------|
G|--14--14--14--14--14--14--16--14--|--14--14--14--14--14--14--16--14--|
D|--14--14--14--14--14--14--16--14--|--14--14--14--14--14--14--16--14--|
A|--12--12--12--12--12--12--14--12--|--12--12--12--12--12--12--14--12--|
E|----------------------------------|----------------------------------|

Guitar 1:
    1   +   2   +   3   +   4   +      1   +   2   +   3   +   4   +
e|----------------------------------|----------5---------------5-------|
B|----------------------------------|--2---------------2---------------|
G|--9---9---9---9---9---9---9---9---|----------------------------------|
D|--9---9---9---9---9---9---9---9---|----------------------------------|
A|--7---7---7---7---7---7---7---7---|----------------------------------|
E|----------------------------------|----------------------------------|
        what you might miss                                            |
Guitar 2:                                                              |
    1   +   2   +   3   +   4   +      1   +   2   +   3   +   4   +   |
e|----------------------------------|----------------------------------|
B|----------------------------------|----------------------------------|
G|--18--18--18--9---9---9---9---9---|----------------------------------|
D|--18--18--18--9---9---9---9---9---|--7---7---7---7---7---7---7---7---|
A|--16--16--16--7---7---7---7---7---|--7---7---7---7---7---7---7---7---|
E|----------------------------------|--5---5---5---5---5---5---5---5---|

Guitar 1:
    1   +   2   +   3   +   4   +      1   +   2   +   3   +   4   +
e|--4-------2-----4-----2---0-------|----------5---------------5-------|
B|----------------------------------|----------------------------------|
G|----------------------------------|--2---------------2---------------|
D|----------------------------------|----------------------------------|
A|----------------------------------|----------------------------------|
E|----------------------------------|----------------------------------|
                                                                       |
Guitar 2:                                                              |
    1   +   2   +   3   +   4   +      1   +   2   +   3   +   4   +   |
e|----------------------------------|----------------------------------|
B|----------------------------------|----------------------------------|
G|--6---6---6---6---6---6---6---6---|--7---7---7---7---7---7---7---7---|
D|--6---6---6---6---6---6---6---6---|--7---7---7---7---7---7---7---7---|
A|--4---4---4---4---4---4---4---4---|--5---5---5---5---5---5---5---5---|
E|----------------------------------|----------------------------------|

Guitar 1:
    1   +   2   +   3   +   4   +      1   +   2   +   3   +   4   +
e|--4---2---0---2---4---5---9---7---|----------5---------------5-------|
B|----------------------------------|--2---------------2---------------|
G|----------------------------------|----------------------------------|
D|----------------------------------|----------------------------------|
A|----------------------------------|----------------------------------|
E|----------------------------------|----------------------------------|
                                                                       |
Guitar 2:                                                              |
    1   +   2   +   3   +   4   +      1   +   2   +   3   +   4   +   |
e|----------------------------------|----------------------------------|
B|----------------------------------|----------------------------------|
G|--9---9---9---9---9---9---9---9---|----------------------------------|
D|--9---9---9---9---9---9---9---9---|--7---7---7---7---7---7---7---7---|
A|--7---7---7---7---7---7---7---7---|--7---7---7---7---7---7---7---7---|
E|----------------------------------|--5---5---5---5---5---5---5---5---|

Guitar 1:
    1   +   2   +   3   +   4   +      1   +   2   +   3   +   4   +
e|--4-------2-----4-----2---0-------|----------5---------------5-------|
B|----------------------------------|----------------------------------|
G|----------------------------------|--2---------------2---------------|
D|----------------------------------|----------------------------------|
A|----------------------------------|----------------------------------|
E|----------------------------------|----------------------------------|
                                                                       |
Guitar 2:                                                              |
    1   +   2   +   3   +   4   +      1   +   2   +   3   +   4   +   |
e|----------------------------------|----------------------------------|
B|----------------------------------|----------------------------------|
G|--6---6---6---6---6---6---6---6---|--7---7---7---7---7---7---7---7---|
D|--6---6---6---6---6---6---6---6---|--7---7---7---7---7---7---7---7---|
A|--4---4---4---4---4---4---4---4---|--5---5---5---5---5---5---5---5---|
E|----------------------------------|----------------------------------|

Guitar 1:
    1   +   2   +   3   +   4   +      1   +   2   +   3   +   4   +
e|--4---2---0---2---4---5---9---7---|----------------------------------|
B|----------------------------------|----------------------------------|
G|----------------------------------|----------------------------------|
D|----------------------------------|------7---5---4---5---4---5---7---|
A|----------------------------------|--0-------------------------------|
E|----------------------------------|----------------------------------|
                                                                       |
Guitar 2:                                                              |
    1   +   2   +   3   +   4   +      1   +   2   +   3   +   4   +   |
e|----------------------------------|----------------------------------|
B|----------------------------------|----------------------------------|
G|--9---9---9---9---9---9---9---9---|----------------------------------|
D|--9---9---9---9---9---9---9---9---|--7---7---x---7---x---7---x---7---|
A|--7---7---7---7---7---7---7---7---|--7---7---x---7---x---7---x---7---|
E|----------------------------------|--5---5---x---5---x---5---x---5---|

Guitar 1:
    1   +   2   +   3   +   4   +      1   +   2   +   3   +   4   +
e|----------------------------------|----------------------------------|
B|----------------------------------|----------------------------------|
G|----------------------------------|----------------------------------|
D|------7---5---4---5---4---2-------|------7---5---4---5---4---5---7---|
A|--0-------------------------------|--0-------------------------------|
E|----------------------------------|----------------------------------|
                                                                       |
Guitar 2:                                                              |
    1   +   2   +   3   +   4   +      1   +   2   +   3   +   4   +   |
e|----------------------------------|----------------------------------|
B|----------------------------------|----------------------------------|
G|----------------------------------|----------------------------------|
D|--7---7---x---7---x---7---x---7---|--7---7---x---7---x---7---x---7---|
A|--7---7---x---7---x---7---x---7---|--7---7---x---7---x---7---x---7---|
E|--5---5---x---5---x---5---x---5---|--5---5---x---5---x---5---x---5---|

Guitar 1:
    1   +   2   +   3   +   4   +      1   +   2   +   3   +   4   +
e|----------------------------------|----------------------------------|
B|------------------8---7-----------|----------------------------------|
G|--------------------------7-------|--r-------------------------------|
D|------7---5---4-----------7-------|--r-------------------------------|
A|--0-----------------------5-------|--r-------------------------------|
E|----------------------------------|----------------------------------|
                                                                       |
Guitar 2:                                                              |
    1   +   2   +   3   +   4   +      1   +   2   +   3   +   4   +   |
e|----------------------------------|----------------------------------|
B|----------------------------------|----------------------------------|
G|--r-----------------------7-------|-(7)------------------------------|
D|--r-----------------------7-------|-(7)------------------------------|
A|--r-----------------------5-------|-(5)------------------------------|
E|----------------------------------|----------------------------------|

Guitar 1:
    1   +   2   +   3   +   4   +      1   +   2   +   3   +   4   +
e|----------------------7-9--12t----|-(12)-----------------------------|
B|-----------------7-9--------------|----------------------------------|
G|------------8--9------------------|----------------------------------|
D|-------7--9-----------------------|----------------------------------|
A|--7-9-----------------------------|----------------------------------|
E|----------------------------------|----------------------------------|
                                                                       |
Guitar 2:                                                              |
    1   +   2   +   3   +   4   +      1   +   2   +   3   +   4   +   |
e|----------------------------------|----------------------------------|
B|----------------------------------|----------------------------------|
G|-(7)------------------------------|-(7)------------------------------|
D|-(7)------------------------------|-(7)------------------------------|
A|-(5)------------------------------|-(5)------------------------------|
E|----------------------------------|----------------------------------|

    1   +   2   +   3   +   4   +      1   +   2   +   3   +   4   +
e|----------------------------------|----------------------------------|
B|----------------------------------|----------------------------------|
G|----------------------------------|----------------------------------|
D|--7-------------------------------|-(7)------------------------------|
A|--7-------------------------------|-(7)------------------------------|
E|--5-------------------------------|-(5)------------------------------|

    1   +   2   +   3   +   4   +      1   +   2   +   3   +   4   +
e|----------------------------------|----------------------------------|
B|----------------------------------|----------------------------------|
G|----------------------------------|----------------------------------|
D|-(7)------------------------------|-(7)------------------------------|
A|-(7)------------------------------|-(7)------------------------------|
E|-(5)------------------------------|-(5)------------------------------|


| /  slide up
| \  slide down
| h  hammer-on
| p  pull-off
| ~  vibrato
| +  harmonic
| x  Mute note
| r  rest
| b  bend
| t  tremolo pick
===============================================================================
Related for The Friends You Never Had - Just Another Life tab