Song name
# A B C D E F G H I J K L M N O P Q R S T U V W X Y Z

Misc Unsigned Bands - Kira And The Ghost Riders - Riders On The Freeway tab

Help us improve GuitareTab! Take a short survey!
I learned this song from my guitar teacher Silas Tinglef, who, by the way, is awesome, I 
got a chance to tell him, and I am terribly sorry for that. Unfortunately, he only 
me the theme, as I had a role in a movie, and could not come for the last month. 
Well, anyways, here it is. I hope you enjoy.
 Em       D     Em       D     Em       D    A        G
|--------------------------------------------------------------|
|--------------------------------------------------------------|
|-------------------------7------------------------------------| x2
|----------5-7--7/----9-9--7--9----9-9-7-5------------5--------|
|-7---7-7--5------9-------------7--------5--7-----7-7---5--7---|
|-0-------------------------------------------5-------------0--|

And the simple version (not worse, but without the bass (for bands with two guitars)):
|------------------------------------------------------------|
|------------------------------------------------------------|
|-------------------------7----------------------------------| x2
|----------5-7--7/----9-9--7--9----9-9-7-5------------5------|
|-7---7-7-----------------------------------7-----7-7---5--7-|
|------------------------------------------------------------|

When I got to the lyrics (that I originally did not plan to write), I got stuck, and 
up on the original. So here you have my version (almost close to being something that might 
accurate).
Now you have a descent version of the verse also, but there is still much I could not 
out, that you will have to listen off yourself
You and me
Were free
We’ve been moving up the west coast

When I got to the lyrics (that I originally did not plan to write), I got stuck, and 
up on the original. So here you have my version (almost close to being something that might 
accurate).
Now you have a descent version of the verse also, but there is still much I could not 
out, that you will have to listen off yourself
You and me
Were free
We’ve been moving up the west coast

All alone
Start closed
Two lone riders of the freeway

You and me
Then you leave
How to like secrets of you? Leave me
You’re bold
And I’m sold
Two lone lovers of the freeway

Oh my love
Wait for me
You’re my secret I can never keep
Shoot your god
Right for me
Ill make it hot Ill make you want me

We’ve moved
Past time
No more questions from the sideline
We’re good
Just fine
They can’t see us from the skyline

The memories
We’ve left behind
The golden days
When our lives start entertwine
Trill in time
Stuck inside my mind
(Solo)

Rider west gone
Lost
Been forced
Been forced in to the arms of oblivious downfall
No hope
No hope
Been smoked,
Been choked
All by the promise of hearing that there is hope

Gone again,
Gone again,
Gone again,
Gone again,
Gone again,
Gone again,
Gone again,
Gone again…

Official homepage:
http://kiramusic.com/
Related for Kira And The Ghost Riders - Riders On The Freeway tab