Guitaretab - guitar tabs
Song name
# A B C D E F G H I J K L M N O P Q R S T U V W X Y Z

Misc Unsigned Bands - Customs - Rex tab

Hi, this is the tab for the song Rex from the Customs.
Since there's not one tab on the internet, nor any lyrics, I felt like sharing my tab 
you.
The chorus part may not be perfect, but I think it's a nice try and the rest is quite
and it sounds really good if you play along with the song
Good luck and enjoy!

########################
#Customs -Rex          #
#Tabbed by: Bladerkeuh #
#Normal tuning, no capo#
########################


Intro

|-------------------------------------------------|
|-------------------------------------------------|
|-------------------------------------------------|
|-------5-5--------5-5----------------------------|   x3
|-7-7--------7-7----------------------------------|
|-------------------------0-0-0-0-0-0-0-0---------|

|-------------------------------------------------|
|-------------------------------------------------|
|-------------------------------------------------|
|-------5-5--------5-5----------------------------|
|-7-7--------7-7----------------------------------|
|-------------------------0-----------------------|

Verse

|-------------------------------------------------|
|-------------------------------------------------|
|-------------------------------------------------|
|-------5-5--------5-5----------------------------|   x4
|-7-7--------7-7----------------------------------|
|-------------------------0-0-0-0-0-0-0-0---------|

|-------------------------------------------------|
|-------------------------------------------------|
|-------------------------------------------------|
|-2-2--------2-2----------------------------------|
|-------3-3--------3-3----0-0-0-0-0-0-0-0---------|
|-------------------------------------------------|

|-------------------------------------------------|
|-------------------------------------------------|
|-------------------------------------------------|
|-2-2--------2-2----------------------------------|
|-------3-3--------3-3----------------------------|
|-------------------------0-0-2-2-3-3-5-5---------|

|-------------------------------------------------|
|-------------------------------------------------|
|-------------------------------------------------|
|-------5-5--------5-5----------------------------|   x4
|-7-7--------7-7----------------------------------|
|-------------------------0-0-0-0-0-0-0-0---------|

|-------------------------------------------------|
|-------------------------------------------------|
|-------------------------------------------------|
|-2-2--------2-2----------------------------------|
|-------3-3--------3-3----0-0-0-0-0-0-0-0---------|
|-------------------------------------------------|

|-------------------------------------------------|
|-------------------------------------------------|
|-------------------------------------------------|
|-2-2--------2-2----------------------------------|
|-------3-3--------3-3----------------------------|
|-------------------------0-0-2-2-3-3-5-5---------|

|-------------------------------------------------|
|-------------------------------------------------|
|-------------------------------------------------|
|-------------------------------------------------|
|-------------------------------------------------|
|---0-0-0-0-0-0-0-0-0-0-0-0-0---------------------|

Chorus:
Itís quite difficult and time consuming to make the strumming
pattern, but Iíve put the word where another chord starts above
the new chord. It shouldn't be that difficult to figure it out yourself :) Try to stress
upper snares of the chords. The chords are maybe and probably not the original ones,
I play these, and it sounds good enough
to me. Corrections are always welcome!

"time now ... king in ...tell how ...freezing ... "
|---------------2---------------------0----------|
|---------------3---------1-----------1----------|
|-0-------------2---------0-----------2----------|
|-2-------------0---------2-----------2----------|
|-2-------------0---------3-----------0----------|
|-0-----------------------0----------------------|

"Itís getting time now, "
|---------------------------------------------------|
|---------------------------------------------------|
|--0------------------------------------------------|
|--2------------------------------------------------|
|--2------------------------------------------------|
|--0--------------------0-0-0-0-0-0-0-0-0-----------|
[ Tab from: http://www.guitaretab.com/m/misc-unsigned-bands/189752.html ]
"Itís getting time now"
|---------------------------------------------------|
|---------------------------------------------------|
|--0------------------------------------------------|
|--2------------------------------------------------|
|--2------------------------------------------------|
|--0--------------------0-0-0-0-0-0-0-0-0-----------|


Verse

|-------------------------------------------------|
|-------------------------------------------------|
|-------------------------------------------------|
|-------5-5--------5-5----------------------------|  x4
|-7-7--------7-7----------------------------------|
|-------------------------0-0-0-0-0-0-0-0---------|

|-------------------------------------------------|
|-------------------------------------------------|
|-------------------------------------------------|
|-2-2--------2-2----------------------------------|
|-------3-3--------3-3----0-0-0-0-0-0-0-0---------|
|-------------------------------------------------|

|-------------------------------------------------|
|-------------------------------------------------|
|-------------------------------------------------|
|-2-2--------2-2----------------------------------|
|-------3-3--------3-3----------------------------|
|-------------------------0-0-2-2-3-3-5-5---------|

|---------------------------------------------------|
|---------------------------------------------------|
|---------------------------------------------------|
|-------5-5--------5-5------------------------------|   x4
|-7-7--------7-7------------------------------------|
|-------------------------0-0-0-0-0-0-0-0-----------|

|-------------------------------------------------|
|-------------------------------------------------|
|-------------------------------------------------|
|-2-2--------2-2----------------------------------|
|-------3-3--------3-3----0-0-0-0-0-0-0-0---------|
|-------------------------------------------------|


|-------------------------------------------------|
|-------------------------------------------------|
|-------------------------------------------------|
|-2-2--------2-2----------------------------------|
|-------3-3--------3-3----------------------------|
|-------------------------0-0-2-2-3-3-5-5---------|

|-------------------------------------------------|
|-------------------------------------------------|
|-------------------------------------------------|
|-------------------------------------------------|
|-------------------------------------------------|
|---0-0-0-0-0-0-0-0-0-0-0-0-0---------------------|

Chorus

The same as above, except for the bridge that follows after the chord, when he sings a
higher. I canít hear him play something until the part when he sings ďaahhh ahhh aahhh
It seems like itís only a bass track, but try to play a bit with the basic chords like 
the chorus and youíll find some way :) the chords I play are:

"We ..."
|----0-----------3-----------------------------|
|-3--3--1--1-----0-----------------------------|
|-0--2--0--2--1--0--0--------------------------|
|-2--0--2--2--2--0--2--------------------------|
|-3-----3--0--2--2--2--------------------------|
|-------------0--3--0--------------------------|

"Love..."
|----0----------------------------------------------|
|-3--3--1--1----------------------------------------|
|-0--2--0--2--0-------------------------------------|
|-2--0--2--2--2-------------------------------------|
|-3-----3--0--2-------------------------------------|
|-------------0---0-0-0-0-0-0-0-0-0-0-0-0-----------|

play this part twice:
"aahhh aaahh ...."
|---------------------------------------------------------------|
|---------------------------------------------------------------|
|---------------------------------------------------------------|
|----------------------5-5-5-5-5-5-5-5--------------------------|
|-7-7-7-7-7-7-7-7-----------------------3-3-3-3-3-3-3-3---------|
|---------------------------------------------------------------|

|--------------------------------------------------------------|
|--------------------------------------------------------------|
|--------------------------------------------------------------|
|-2-2-2-2-2-2-2-2----------------------------------------------|
|--------------------------------------------------------------|
|----------------------0-0-0-0-0-0-0-0-0-0-0-0-0-0-0-0---------|

Chorus again...

At the end, at the moment he keeps repeating ďitís getting time nowĒ, just keep playing
Em chord or just the open E string .


Good luck! For comments or corrections, please mail me:
Lemmens_gert@hotmail.com
Related for Customs - Rex tab