Song name
# A B C D E F G H I J K L M N O P Q R S T U V W X Y Z

Misc Unsigned Bands - Say Your Prayers - Sunrise tab

Say Your Prayers
Song : Sunrise

This tab is 100% correct. If you have any questions E-mail us @ 
and we'll try to help you out with any problems you might have. Enjoy!

Drop C
b : bend
p : pull-off
h : hammer-on
* : cut-off or mute
t : tap


Guitar : 1

D  :----------------|----------------|----------------|--------------------|
A  :----------------|----------------|----------------|--------------------|
F  :----------------|----------------|----------------|------10---9--------|
C  :----------------|----------------|----------------|-------------10---7-|
G  :----------------|----------------|----------------|0-0-0----0------0---|
C  :----------------|----------------|----------------|0-0-0----0------0---|

Guitar : 2

D  :----------------|----------------|----------------|--------------------|
A  :----------------|----------------|----------------|--------------------|
F  :----------------|----------------|----------------|------10---9--------|
C  :----------------|----------------|----------------|-------------10---7-|
G  :----------------|----------------|----------------|0-0-0----0------0---|
C  :----------------|----------------|----------------|0-0-0----0------0---|

============================================================================

Guitar : 1

D  :-------------------|--------------------|
A  :-------------------|--------------------|
F  :-------------------|------10---9--------|
C  :----8-7------------|-------------10---7-|
G  :--0-----10-8-7-8-7-|0-0-0----0------0---|
C  :--0----------------|0-0-0----0------0---|

Guitar : 2

D  :-------------------|--------------------|
A  :-------------------|--------------------|
F  :-------------------|------10---9--------|
C  :----8-7------------|-------------10---7-|
G  :--0-----10-8-7-8-7-|0-0-0----0------0---|
C  :--0----------------|0-0-0----0------0---|

============================================================================

Guitar : 1

D  :-----------------------------------|--------------------|
A  :-----------------------------------|--------------------|
F  :----10-10-10-10-9-9-9-9------------|------10---9--------|
C  :------------------------10-10-10-10|-------------10---7-|
G  :--0--------------------------------|0-0-0----0------0---|
C  :--0--------------------------------|0-0-0----0------0---|

Guitar : 2

D  :-----------------------------------|--------------------|
A  :-----------------------------------|--------------------|
F  :----10-10-10-10-9-9-9-9------------|------10---9--------|
C  :------------------------10-10-10-10|-------------10---7-|
G  :--0--------------------------------|0-0-0----0------0---|
C  :--0--------------------------------|0-0-0----0------0---|

============================================================================

Guitar : 1

D  :---------------------|--------------------|----------------------|
A  :---------------------|--------------------|----------------------|
F  :----------9-10-12-14-|------10---9--------|----------------------|
C  :--8-10-12------------|-------------10---7-|/12-p0---12-p0---10---|
G  :---------------------|0-0-0----0------0---|----------------------|
C  :---------------------|0-0-0----0------0---|-------0-------0------|

Guitar : 2

D  :---------------------|--------------------|----------------------|
A  :---------------------|--------------------|----------------------|
F  :----------9-10-12-14-|------10---9--------|----------------------|
C  :--8-10-12------------|-------------10---7-|/12-p0---12-p0---10---|
G  :---------------------|0-0-0----0------0---|----------------------|
C  :---------------------|0-0-0----0------0---|-------0-------0------|

============================================================================

Guitar : 1

D  :----------------------|-------------------------|----------------------|
A  :----------------------|-------------------------|----------------------|
F  :------14---12---------|-------------------------|------14---12---------|
C  :--------------14---10-|----12-10----------------|--------------14---10-|
G  :0-0-0----0-------0----|--0-------13-12-10-12-10-|0-0-0----0-------0----|
C  :0-0-0----0-------0----|--0----------------------|0-0-0----0-------0----|

Guitar : 2

D  :----------------------|-------------------------|----------------------|
A  :----------------------|-------------------------|----------------------|
F  :------10----9---------|-------------------------|------10----9---------|
C  :--------------10----7-|-----8--7----------------|--------------10----7-|
G  :0-0-0----0-------0----|--0-------10--8--7--8--7-|0-0-0----0-------0----|
C  :0-0-0----0-------0----|--0----------------------|0-0-0----0-------0----|

============================================================================

Guitar : 1

D  :---------------------------------------|----------------------|
A  :---------------------------------------|----------------------|
F  :----14-14-14-14-12-12-12-12------------|------14---12---------|
C  :----------------------------14-14-14-14|--------------14---10-|
G  :--0------------------------------------|0-0-0----0-------0----|
C  :--0------------------------------------|0-0-0----0-------0----|

Guitar : 2

D  :---------------------------------------|----------------------|
A  :---------------------------------------|----------------------|
F  :----10-10-10-10--9--9--9--9------------|------10----9---------|
C  :----------------------------10-10-10-10|--------------10----7-|
G  :--0------------------------------------|0-0-0----0-------0----|
C  :--0------------------------------------|0-0-0----0-------0----|

============================================================================

Guitar : 1

D  :-----------------------|----------------------|----------------------|
A  :-----------------------|----------------------|----------------------|
F  :-----------12-14-15-17-|------14---12---------|----------------------|
C  :--12-14-15-------------|--------------14---10-|-15-p0---15-p0---14---|
G  :-----------------------|0-0-0----0-------0----|----------------------|
C  :-----------------------|0-0-0----0-------0----|-------0-------0------|

Guitar : 2

D  :-----------------------|----------------------|----------------------|
A  :-----------------------|----------------------|----------------------|
F  :------------9-10-12-14-|------10----9---------|----------------------|
C  :---8-10-12-------------|--------------10----7-|/12-p0---12-p0---10---|
G  :-----------------------|0-0-0----0-------0----|----------------------|
C  :-----------------------|0-0-0----0-------0----|-------0-------0------|

============================================================================

Guitar : 1

D  :------------------|----------------|------------------|
A  :------------------|----------------|------------------|
F  :------------------|----------------|------------------|
C  :----7-8-7-------5-|--8---8-7---5---|----7-8-7-------5-|
G  :0-0-------8-5-0---|0---0-----0---8-|0-0-------8-5-0---|
C  :0-0-----------0---|0---0-----0-----|0-0-----------0---|

Guitar : 2

D  :------------------|----------------|------------------|
A  :------------------|----------------|------------------|
F  :------------------|----------------|------------------|
C  :----7-8-7-------5-|--8---8-7---5---|----7-8-7-------5-|
G  :0-0-------8-5-0---|0---0-----0---8-|0-0-------8-5-0---|
C  :0-0-----------0---|0---0-----0-----|0-0-----------0---|

============================================================================

Guitar : 1

D  :--------------------|------------------|----------------|
A  :--------------------|------------------|----------------|
F  :--------------------|------------------|----------------|
C  :--5-8-5---4-7-4---3-|----7-8-7-------5-|--8---8-7---5-3-|
G  :0-------0-------0---|0-0-------8-5-0---|0---0-----0-----|
C  :0-------0-------0---|0-0-----------0---|0---0-----0-----|

Guitar : 2

D  :--------------------|------------------|----------------|
A  :--------------------|------------------|----------------|
F  :--------------------|------------------|----------------|
C  :--5-8-5---4-7-4---3-|----7-8-7-------5-|--8---8-7---5-3-|
G  :0-------0-------0---|0-0-------8-5-0---|0---0-----0-----|
C  :0-------0-------0---|0-0-----------0---|0---0-----0-----|

============================================================================

Guitar : 1

D  :------------------|---------------------------------------------------|
A  :------------------|---------------------------------------------------|
F  :------------------|---------------------------------------------------|
C  :----7-8-7---------|---------------------------------------------------|
G  :0-0-------8-5-0-0-|-5---8--5--8--5---8--5--8--4---7--4--7--4---7--4--7|
C  :0-0-----------0-0-|---------------------------------------------------|

Guitar : 2

D  :------------------|---------------------------------------------------|
A  :------------------|---------------------------------------------------|
F  :------------------|---------------------------------------------------|
C  :----7-8-7---------|---------------------------------------------------|
G  :0-0-------8-5-0-0-|---------------------------------------------------|
C  :0-0-----------0-0-|12-t15-12-15-12-t15-12-15-11-t14-11-14-11-t14-11-14|

============================================================================

Guitar : 1

D  :------------------|----------------|------------------|
A  :------------------|----------------|------------------|
F  :------------------|----------------|------------------|
C  :----7-8-7-------5-|--8---8-7---5---|----7-8-7-------5-|
G  :0-0-------8-5-0---|0---0-----0---8-|0-0-------8-5-0---|
C  :0-0-----------0---|0---0-----0-----|0-0-----------0---|

Guitar : 2

D  :------------------|----------------|------------------|
A  :------------------|----------------|------------------|
F  :------------------|----------------|------------------|
C  :----7-8-7-------5-|--8---8-7---5---|----7-8-7-------5-|
G  :0-0-------8-5-0---|0---0-----0---8-|0-0-------8-5-0---|
C  :0-0-----------0---|0---0-----0-----|0-0-----------0---|

============================================================================

Guitar : 1

D  :--------------------|------------------|----------------|
A  :--------------------|------------------|----------------|
F  :--------------------|------------------|----------------|
C  :--5-8-5---4-7-4---3-|----7-8-7-------5-|--8---8-7---5-3-|
G  :0-------0-------0---|0-0-------8-5-0---|0---0-----0-----|
C  :0-------0-------0---|0-0-----------0---|0---0-----0-----|

Guitar : 2

D  :--------------------|------------------|----------------|
A  :--------------------|------------------|----------------|
F  :--------------------|------------------|----------------|
C  :--5-8-5---4-7-4---3-|----7-8-7-------5-|--8---8-7---5-3-|
G  :0-------0-------0---|0-0-------8-5-0---|0---0-----0-----|
C  :0-------0-------0---|0-0-----------0---|0---0-----0-----|

============================================================================

Guitar : 1

D  :------------------|---------------------------------------------------|
A  :------------------|---------------------------------------------------|
F  :------------------|---------------------------------------------------|
C  :----7-8-7---------|---------------------------------------------------|
G  :0-0-------8-5-0-0-|-5---8--5--8--5---8--5--8--4---7--4--7--4---7--4--7|
C  :0-0-----------0-0-|---------------------------------------------------|

Guitar : 2

D  :------------------|---------------------------------------------------|
A  :------------------|---------------------------------------------------|
F  :------------------|---------------------------------------------------|
C  :----7-8-7---------|---------------------------------------------------|
G  :0-0-------8-5-0-0-|---------------------------------------------------|
C  :0-0-----------0-0-|12-t15-12-15-12-t15-12-15-11-t14-11-14-11-t14-11-14|

============================================================================

Guitar : 1

D  :----------------|----------------|----------------|----------------|
A  :----------------|----------------|----------------|----------------|
F  :----------------|----------------|----------------|----------------|
C  :1---------------|----------------|0---------------|----------------|
G  :1---------------|----------------|0---------------|----------------|
C  :1---------------|----------------|0---------------|----------------|

Guitar : 2

D  :----------------|----------------|----------------|----------------|
A  :----------------|----------------|----------------|----------------|
F  :----------------|----------------|----------------|----------------|
C  :1---------------|----------------|0---------------|----------------|
G  :1---------------|----------------|0---------------|----------------|
C  :1---------------|----------------|0---------------|----------------|

============================================================================

Guitar : 1

D  :----------------|------------------|----------------|------------------|
A  :----------------|------------------|----------------|------------------|
F  :----------------|------------------|----------------|------------------|
C  :----------------|------------------|----------------|------------------|
G  :0---0-----0---0-|--0-0-0-0-0---0---|0---0-----0---0-|--0-0-0-0-0-------|
C  :0---0-----0---0-|--0-0-0-0-0---0---|0---0-----0---0-|--0-0-0-0-0-*-----|

Guitar : 2

D  :----------------|------------------|----------------|------------------|
A  :----------------|------------------|----------------|------------------|
F  :----------------|------------------|----------------|------------------|
C  :----------------|------------------|----------------|------------------|
G  :0---0-----0---0-|--0-0-0-0-0---0---|0---0-----0---0-|--0-0-0-0-0-------|
C  :0---0-----0---0-|--0-0-0-0-0---0---|0---0-----0---0-|--0-0-0-0-0-*-----|

============================================================================

Guitar : 1

D  :----------------|----------------|----------------|----------------|
A  :----------------|----------------|----------------|----------------|
F  :----------------|----------------|----------------|----------------|
C  :----------------|----------------|----------------|----------------|
G  :0---0-----0---0-|--0-0-----------|0---0-----0---0-|--0-0---3-1-0-1-|
C  :0---0-----0---0-|--0-0---*-------|0---0-----0---0-|--0-0---3-1-0-1-|

Guitar : 2

D  :----------------|----------------|----------------|----------------|
A  :----------------|----------------|----------------|----------------|
F  :----------------|----------------|----------------|----------------|
C  :----------------|----------------|----------------|----------------|
G  :0---0-----0---0-|--0-0-----------|0---0-----0---0-|--0-0---3-1-0-1-|
C  :0---0-----0---0-|--0-0---*-------|0---0-----0---0-|--0-0---3-1-0-1-|

============================================================================

Guitar : 1

D  :----------------|----------------|----------------|
A  :----------------|----------------|----------------|
F  :----------------|----------------|----------------|
C  :----------------|----------------|----------------|
G  :0---0-----0---0-|--0-0-----------|0---0-----0---0-|
C  :0---0-----0---0-|--0-0---*-------|0---0-----0---0-|

Guitar : 2

D  :----------------|----------------|----------------|
A  :----------------|----------------|----------------|
F  :----------------|----------------|----------------|
C  :----------------|----------------|----------------|
G  :0---0-----0---0-|--0-0-----------|0---0-----0---0-|
C  :0---0-----0---0-|--0-0---*-------|0---0-----0---0-|

============================================================================

Guitar : 1

D  :-----------------------|-----------------|----------------|
A  :-----------------------|-----------------|----------------|
F  :-----------------------|-----------------|----------------|
C  :-----------------------|-----------------|----------------|
G  :--0-0---5/-/-/-/-/-/-/-|/0---0-----0---0-|--0-0---*-------|
C  :--0-0---5/-/-/-/-/-/-/-|/0---0-----0---0-|--0-0---*-------|

Guitar : 2

D  :-----------------------|-----------------|----------------|
A  :-----------------------|-----------------|----------------|
F  :-----------------------|-----------------|----------------|
C  :-----------------------|-----------------|----------------|
G  :--0-0---5/-/-/-/-/-/-/-|/0---0-----0---0-|--0-0---*-------|
C  :--0-0---5/-/-/-/-/-/-/-|/0---0-----0---0-|--0-0---*-------|

============================================================================

Guitar : 1

D  :----------------|----------------|----------------|----------------|
A  :----------------|----------------|----------------|----------------|
F  :----------------|----------------|----------------|----------------|
C  :----------------|----------------|----------------|----------------|
G  :0---0-----0---0-|--0-0---3-1-0-1-|0---0-----0---0-|--0-0---*-------|
C  :0---0-----0---0-|--0-0---3-1-0-1-|0---0-----0---0-|--0-0---*-------|

Guitar : 2

D  :----------------|----------------|----------------|----------------|
A  :----------------|----------------|----------------|----------------|
F  :----------------|----------------|----------------|----------------|
C  :----------------|----------------|----------------|----------------|
G  :0---0-----0---0-|--0-0---3-1-0-1-|0---0-----0---0-|--0-0---*-------|
C  :0---0-----0---0-|--0-0---3-1-0-1-|0---0-----0---0-|--0-0---*-------|

============================================================================

Guitar : 1

D  :----------------|-----------------------|----------------|
A  :----------------|-----------------------|----------------|
F  :----------------|-----------------------|----------------|
C  :----------------|-----------------------|----------------|
G  :0---0-----0---0-|--0-0---5/-/-/-/-/-/-/-|0-0-4---7-5-----|
C  :0---0-----0---0-|--0-0---5/-/-/-/-/-/-/-|0-0---0-----0-0-|

Guitar : 2

D  :----------------|-----------------------|----------------|
A  :----------------|-----------------------|----------------|
F  :----------------|-----------------------|----------------|
C  :----------------|-----------------------|----------------|
G  :0---0-----0---0-|--0-0---5/-/-/-/-/-/-/-|0-0-*-----------|
C  :0---0-----0---0-|--0-0---5/-/-/-/-/-/-/-|0-0-*-----------|

============================================================================

Guitar : 1

D  :------------------|----------------|-------------------------------|
A  :------------------|----------------|-------------------------------|
F  :------------------|----------------|-------------------------------|
C  :------------------|----------------|-------------------------------|
G  :8-7---1---0-4-5-4-|0-0-4---7-5-----|5-5-5-5-0-0-0-0-1-1-1-1-4-4-4-4|
C  :----0---0---------|0-0---0-----0-0-|-------------------------------|

Guitar : 2

D  :------------------|----------------|-------------------------------|
A  :------------------|----------------|-------------------------------|
F  :------------------|----------------|-------------------------------|
C  :------------------|----------------|-------------------------------|
G  :------------------|0-0-*-----------|5-5-5-5-0-0-0-0-1-1-1-1-4-4-4-4|
C  :------------------|0-0-*-----------|-------------------------------|

============================================================================

Guitar : 1

D  :----------------|------------------|----------------|
A  :----------------|------------------|----------------|
F  :----------------|------------------|----------------|
C  :----------------|------------------|----------------|
G  :0-0-4---7-5-----|8-7---1---0-4-5-4-|0-0-4---7-5-----|
C  :0-0---0-----0-0-|----0---0---------|0-0---0-----0-0-|

Guitar : 2

D  :----------------|------------------|----------------|
A  :----------------|------------------|----------------|
F  :----------------|------------------|----------------|
C  :----------------|------------------|----------------|
G  :0-0-*-----------|------------------|0-0-------------|
C  :0-0-*-----------|------------------|0-0-*-----------|

============================================================================

Guitar : 1

D  :-------------------------------|----------------|------------------|
A  :-------------------------------|----------------|------------------|
F  :-------------------------------|----------------|------------------|
C  :-------------------------------|----------------|------------------|
G  :5-5-5-5-0-0-0-0-1-1-1-1-4-4-4-4|----4---7-5-----|8-7---1---0-4-5-4-|
C  :-------------------------------|0-0---0-----0-0-|----0---0---------|

Guitar : 2

D  :-------------------------------|----------------|------------------|
A  :-------------------------------|----------------|------------------|
F  :-------------------------------|----------------|------------------|
C  :-------------------------------|----------------|------------------|
G  :5-5-5-5-0-0-0-0-1-1-1-1-4-4-4-4|----4---7-5-----|8-7---1---0-4-5-4-|
C  :-------------------------------|0-0---0-----0-0-|----0---0---------|

============================================================================

Guitar : 1

D  :----------------|-------------------------------|----------------|
A  :----------------|-------------------------------|----------------|
F  :----------------|-------------------------------|----------------|
C  :----------------|-------------------------------|----------------|
G  :----4---7-5-----|5-5-5-5-0-0-0-0-1-1-1-1-4-4-4-4|----4---7-5-----|
C  :0-0---0-----0-0-|-------------------------------|0-0---0-----0-0-|

Guitar : 2

D  :----------------|-------------------------------|----------------|
A  :----------------|-------------------------------|----------------|
F  :----------------|-------------------------------|----------------|
C  :----------------|-------------------------------|----------------|
G  :----4---7-5-----|5-5-5-5-0-0-0-0-1-1-1-1-4-4-4-4|----4---7-5-----|
C  :0-0---0-----0-0-|-------------------------------|0-0---0-----0-0-|

============================================================================

Guitar : 1

D  :------------------|----------------|----------------------------|
A  :------------------|----------------|----------------------------|
F  :------------------|----------------|----------------------------|
C  :------------------|----------------|----------------------------|
G  :8-7---1---0-4-5-4-|----4---7-5-----|5-5-5-5-0-0-0-0-1-1-1-1-4---|
C  :----0---0---------|0-0---0-----0-0-|----------------------------|

Guitar : 2

D  :------------------|----------------|----------------------------|
A  :------------------|----------------|----------------------------|
F  :------------------|----------------|----------------------------|
C  :------------------|----------------|----------------------------|
G  :8-7---1---0-4-5-4-|----4---7-5-----|5-5-5-5-0-0-0-0-1-1-1-1-4---|
C  :----0---0---------|0-0---0-----0-0-|----------------------------|

============================================================================

Guitar : 1

D  :----------------|------------------|----------------|
A  :----------------|------------------|----------------|
F  :----------------|------------------|----------------|
C  :----------------|------------------|----------------|
G  :----4---7-5-----|8-7---1---0-4-5-4-|----4---7-5-----|
C  :0-0---0-----0-0-|----0---0---------|0-0---0-----0-0-|

Guitar : 2

D  :----------------|------------------|----------------|
A  :----------------|------------------|----------------|
F  :----------------|------------------|----------------|
C  :----------------|------------------|----------------|
G  :----4---7-5-----|8-7---1---0-4-5-4-|----4---7-5-----|
C  :0-0---0-----0-0-|----0---0---------|0-0---0-----0-0-|

============================================================================

Guitar : 1

D  :-------------------------------|----------------|------------------|
A  :-------------------------------|----------------|------------------|
F  :-------------------------------|----------------|------------------|
C  :-------------------------------|----------------|------------------|
G  :5-5-5-5-0-0-0-0-1-1-1-1-4-4-4-4|----4---7-5-----|8-7---1---0-4-5-4-|
C  :-------------------------------|0-0---0-----0-0-|----0---0---------|

Guitar : 2

D  :-------------------------------|----------------|------------------|
A  :-------------------------------|----------------|------------------|
F  :-------------------------------|----------------|------------------|
C  :-------------------------------|----------------|------------------|
G  :5-5-5-5-0-0-0-0-1-1-1-1-4-4-4-4|----4---7-5-----|8-7---1---0-4-5-4-|
C  :-------------------------------|0-0---0-----0-0-|----0---0---------|

============================================================================

Guitar : 1

D  :----------------|----------------------------|
A  :----------------|----------------------------|
F  :----------------|----------------------------|
C  :----------------|------------------------3---|
G  :----4---7-5-----|5-5-5-5-0-0-0-0-1-1-1-1-----|
C  :0-0---0-----0-0-|----------------------------|

Guitar : 2

D  :----------------|----------------------------|
A  :----------------|----------------------------|
F  :----------------|----------------------------|
C  :----------------|------------------------3---|
G  :----4---7-5-----|5-5-5-5-0-0-0-0-1-1-1-1-----|
C  :0-0---0-----0-0-|----------------------------|

============================================================================

Guitar : 1

D  :-----------------------------|----------------------|
A  :-----------------------------|----------------------|
F  :-----------------------------|----------------------|
C  :-----------------------------|----------------------|
G  :0-0-0-0-0-0-0-0-0*0-0-0-0-0-0|0*0*0-0-0-0-0*0*0-0-0*|
C  :0-0-0-0-0-0-0-0-0*0-0-0-0-0-0|0*0*0-0-0-0-0*0*0-0-0*|

Guitar : 2

D  :-----------------------------|----------------------|
A  :-----------------------------|----------------------|
F  :-----------------------------|----------------------|
C  :0----------------------------|----------------------|
G  :0----------------------------|----------------------|
C  :0----------------------------|----------------------|

============================================================================

Guitar : 1

D  :---------------------------|----------------------|
A  :---------------------------|----------------------|
F  :---------------------------|----------------------|
C  :---------------------------|----------------------|
G  :0-0-0-0-0*0-0-0-0-0*0-0-0-0|0*0-0-0-0-0*0-0-0*----|
C  :0-0-0-0-0*0-0-0-0-0*0-0-0-0|0*0-0-0-0-0*0-0-0*----|

Guitar : 2

D  :---------------------------|----------------------|
A  :---------------------------|----------------------|
F  :---------------------------|----------------------|
C  :---------------------------|----------------------|
G  :---------------------------|----------------------|
C  :---------------------------|-----------------*----|

============================================================================

Guitar : 1

D  :----------------------------|--------------------------|
A  :----------------------------|--------------------------|
F  :----------------------------|--------------------------|
C  :----------------------------|--------------------------|
G  :0-0-0-0-0-0-0-0-0*0-0-0-0-0*|--0-0-0-0-0-0-0*0-0-0-0-0*|
C  :0-0-0-0-0-0-0-0-0*0-0-0-0-0*|--0-0-0-0-0-0-0*0-0-0-0-0*|

Guitar : 2

D  :----------------------------|--------------------------|
A  :----------------------------|--------------------------|
F  :----------------------------|--------------------------|
C  :----------------------------|--------------------------|
G  :0-0-0-0-0-0-0-0-0*0-0-0-0-0*|--0-0-0-0-0-0-0*0-0-0-0-0*|
C  :0-0-0-0-0-0-0-0-0*0-0-0-0-0*|--0-0-0-0-0-0-0*0-0-0-0-0*|

============================================================================

Guitar : 1

D  :------------------------|----------------------|
A  :------------------------|----------------------|
F  :------------------------|----------------------|
C  :------------------------|----------------------|
G  :--0-0-0*0-0-0*0-0-0-0-0*|--0-0-0-0-0-0-0*0*--0*|
C  :--0-0-0*0-0-0*0-0-0-0-0*|--0-0-0-0-0-0-0*0*--0*|

Guitar : 2

D  :------------------------|----------------------|
A  :------------------------|----------------------|
F  :------------------------|----------------------|
C  :------------------------|----------------------|
G  :--0-0-0*0-0-0*0-0-0-0-0*|--0-0-0-0-0-0-0*0*--0*|
C  :--0-0-0*0-0-0*0-0-0-0-0*|--0-0-0-0-0-0-0*0*--0*|

============================================================================

Guitar : 1

D  :----------------------------|--------------------------|
A  :----------------------------|--------------------------|
F  :----------------------------|--------------------------|
C  :----------------------------|--------------------------|
G  :0-0-0-0-0-0-0-0-0*0-0-0-0-0*|--0-0-0-0-0-0-0*0-0-0-0-0*|
C  :0-0-0-0-0-0-0-0-0*0-0-0-0-0*|--0-0-0-0-0-0-0*0-0-0-0-0*|

Guitar : 2

D  :----------------------------|--------------------------|
A  :----------------------------|--------------------------|
F  :----------------------------|--------------------------|
C  :----------------------------|--------------------------|
G  :0-0-0-0-0-0-0-0-0*0-0-0-0-0*|--0-0-0-0-0-0-0*0-0-0-0-0*|
C  :0-0-0-0-0-0-0-0-0*0-0-0-0-0*|--0-0-0-0-0-0-0*0-0-0-0-0*|

============================================================================

Guitar : 1

D  :------------------------|----------------------|
A  :------------------------|----------------------|
F  :------------------------|----------------------|
C  :------------------------|----------------------|
G  :--0-0-0*0-0-0*0-0-0-0-0*|--0-0-0-0-0-0-0*0*--0*|
C  :--0-0-0*0-0-0*0-0-0-0-0*|--0-0-0-0-0-0-0*0*--0*|

Guitar : 2

D  :------------------------|----------------------|
A  :------------------------|----------------------|
F  :------------------------|----------------------|
C  :------------------------|----------------------|
G  :--0-0-0*0-0-0*0-0-0-0-0*|--0-0-0-0-0-0-0*0*--0*|
C  :--0-0-0*0-0-0*0-0-0-0-0*|--0-0-0-0-0-0-0*0*--0*|

============================================================================

Guitar : 1

D  :----------------------------|--------------------------|
A  :----------------------------|--------------------------|
F  :--------5-------------------|--------------------------|
C  :----7-------7---8-7---5-----|--------------5-----------|
G  :5-------------------------8-|7-5---7---8-----8---7---5-|
C  :----------------------------|--------------------------|

Guitar : 2

D  :----------------------------|--------------------------|
A  :----------------------------|--------------------------|
F  :----------------------------|--------------------------|
C  :----------------------------|--------------------------|
G  :0-0-0-0-0-0-0-0-0*0-0-0-0-0*|--0-0-0-0-0-0-0*0-0-0-0-0*|
C  :0-0-0-0-0-0-0-0-0*0-0-0-0-0*|--0-0-0-0-0-0-0*0-0-0-0-0*|

============================================================================

Guitar : 1

D  :------------------------|----------------------|
A  :------------------------|----------------------|
F  :------5-----------------|----------------------|
C  :--7-----7---8-7---5-----|--------------5-8-7---|
G  :5---------------------8-|7-5---7---8-----------|
C  :------------------------|----------------------|

Guitar : 2

D  :------------------------|----------------------|
A  :------------------------|----------------------|
F  :------------------------|----------------------|
C  :------------------------|----------------------|
G  :--0-0-0*0-0-0*0-0-0-0-0*|--0-0-0-0-0-0-0*0*--0*|
C  :--0-0-0*0-0-0*0-0-0-0-0*|--0-0-0-0-0-0-0*0*--0*|

============================================================================

Guitar : 1

D  :----------------------------|--------------------------|
A  :----------------------------|--------------------------|
F  :--------5-------------------|--------------------------|
C  :----7-------7---8-7---5-----|--------------5-----------|
G  :5-------------------------8-|7-5---7---8-----8---7---5-|
C  :----------------------------|--------------------------|

Guitar : 2

D  :----------------------------|--------------------------|
A  :----------------------------|--------------------------|
F  :----------------------------|--------------------------|
C  :----------------------------|--------------------------|
G  :0-0-0-0-0-0-0-0-0*0-0-0-0-0*|--0-0-0-0-0-0-0*0-0-0-0-0*|
C  :0-0-0-0-0-0-0-0-0*0-0-0-0-0*|--0-0-0-0-0-0-0*0-0-0-0-0*|

============================================================================

Guitar : 1

D  :------------------------|----------------------|--------------------|
A  :------------------------|----------------------|--------------------|
F  :------5-----------------|----------------------|------10---9--------|
C  :--7-----7---8-7---5-----|--------------5-8-7---|-------------10---7-|
G  :5---------------------8-|7-5---7---8-----------|0-0-0----0------0---|
C  :------------------------|----------------------|0-0-0----0------0---|

Guitar : 2

D  :------------------------|----------------------|--------------------|
A  :------------------------|----------------------|--------------------|
F  :------------------------|----------------------|------10---9--------|
C  :------------------------|----------------------|-------------10---7-|
G  :--0-0-0*0-0-0*0-0-0-0-0*|--0-0-0-0-0-0-0*0*--0*|0-0-0----0------0---|
C  :--0-0-0*0-0-0*0-0-0-0-0*|--0-0-0-0-0-0-0*0*--0*|0-0-0----0------0---|

============================================================================

Guitar : 1

D  :-------------------|--------------------|
A  :-------------------|--------------------|
F  :-------------------|------10---9--------|
C  :----8-7------------|-------------10---7-|
G  :--0-----10-8-7-8-7-|0-0-0----0------0---|
C  :--0----------------|0-0-0----0------0---|

Guitar : 2

D  :-------------------|--------------------|
A  :-------------------|--------------------|
F  :-------------------|------10---9--------|
C  :----8-7------------|-------------10---7-|
G  :--0-----10-8-7-8-7-|0-0-0----0------0---|
C  :--0----------------|0-0-0----0------0---|

============================================================================

Guitar : 1

D  :-----------------------------------|--------------------|
A  :-----------------------------------|--------------------|
F  :----10-10-10-10-9-9-9-9------------|------10---9--------|
C  :------------------------10-10-10-10|-------------10---7-|
G  :--0--------------------------------|0-0-0----0------0---|
C  :--0--------------------------------|0-0-0----0------0---|

Guitar : 2

D  :-----------------------------------|--------------------|
A  :-----------------------------------|--------------------|
F  :----10-10-10-10-9-9-9-9------------|------10---9--------|
C  :------------------------10-10-10-10|-------------10---7-|
G  :--0--------------------------------|0-0-0----0------0---|
C  :--0--------------------------------|0-0-0----0------0---|

============================================================================

Guitar : 1

D  :---------------------|--------------------|----------------------|
A  :---------------------|--------------------|----------------------|
F  :----------9-10-12-14-|------10---9--------|----------------------|
C  :--8-10-12------------|-------------10---7-|/12-p0---12-p0---10---|
G  :---------------------|0-0-0----0------0---|----------------------|
C  :---------------------|0-0-0----0------0---|-------0-------0------|

Guitar : 2

D  :---------------------|--------------------|----------------------|
A  :---------------------|--------------------|----------------------|
F  :----------9-10-12-14-|------10---9--------|----------------------|
C  :--8-10-12------------|-------------10---7-|/12-p0---12-p0---10---|
G  :---------------------|0-0-0----0------0---|----------------------|
C  :---------------------|0-0-0----0------0---|-------0-------0------|

============================================================================

Guitar : 1

D  :----------------------|-------------------------|----------------------|
A  :----------------------|-------------------------|----------------------|
F  :------14---12---------|-------------------------|------14---12---------|
C  :--------------14---10-|----12-10----------------|--------------14---10-|
G  :0-0-0----0-------0----|--0-------13-12-10-12-10-|0-0-0----0-------0----|
C  :0-0-0----0-------0----|--0----------------------|0-0-0----0-------0----|

Guitar : 2

D  :----------------------|-------------------------|----------------------|
A  :----------------------|-------------------------|----------------------|
F  :------10----9---------|-------------------------|------10----9---------|
C  :--------------10----7-|-----8--7----------------|--------------10----7-|
G  :0-0-0----0-------0----|--0-------10--8--7--8--7-|0-0-0----0-------0----|
C  :0-0-0----0-------0----|--0----------------------|0-0-0----0-------0----|

============================================================================

Guitar : 1

D  :---------------------------------------|----------------------|
A  :---------------------------------------|----------------------|
F  :----14-14-14-14-12-12-12-12------------|------14---12---------|
C  :----------------------------14-14-14-14|--------------14---10-|
G  :--0------------------------------------|0-0-0----0-------0----|
C  :--0------------------------------------|0-0-0----0-------0----|

Guitar : 2

D  :---------------------------------------|----------------------|
A  :---------------------------------------|----------------------|
F  :----10-10-10-10--9--9--9--9------------|------10----9---------|
C  :----------------------------10-10-10-10|--------------10----7-|
G  :--0------------------------------------|0-0-0----0-------0----|
C  :--0------------------------------------|0-0-0----0-------0----|

============================================================================

Guitar : 1

D  :-----------------------|----------------------|----------------------|
A  :-----------------------|----------------------|----------------------|
F  :-----------12-14-15-17-|------14---12---------|----------------------|
C  :--12-14-15-------------|--------------14---10-|-15-p0---15-p0---14---|
G  :-----------------------|0-0-0----0-------0----|----------------------|
C  :-----------------------|0-0-0----0-------0----|-------0-------0------|

Guitar : 2

D  :-----------------------|----------------------|----------------------|
A  :-----------------------|----------------------|----------------------|
F  :------------9-10-12-14-|------10----9---------|----------------------|
C  :---8-10-12-------------|--------------10----7-|/12-p0---12-p0---10---|
G  :-----------------------|0-0-0----0-------0----|----------------------|
C  :-----------------------|0-0-0----0-------0----|-------0-------0------|

============================================================================

Guitar : 1

D  :------------------------|------------------------|
A  :15-15-15-15-15-15-15-15-|15-15-15-15-17-17-17-17-|
F  :------------------------|------------------------|
C  :------------------------|------------------------|
G  :------------------------|------------------------|
C  :------------------------|------------------------|

Guitar : 2

D  :------------------------|------------------------|
A  :------------------------|------------------------|
F  :------------------------|------------------------|
C  :12-12-12-12-12-12-12-12-|12-12-12-12-14-14-14-14-|
G  :-8--8--8--8--8--8--8--8-|-8--8--8--8-10-10-10-10-|
C  :-8--8--8--8--8--8--8--8-|-8--8--8--8-10-10-10-10-|

============================================================================

Guitar : 1

D  :------------------------|------------------------|
A  :18-18-18-18-18-18-18-18-|17-17-17-17-20-20-18-18-|
F  :------------------------|------------------------|
C  :------------------------|------------------------|
G  :------------------------|------------------------|
C  :------------------------|------------------------|

Guitar : 2

D  :------------------------|------------------------|
A  :------------------------|------------------------|
F  :------------------------|------------------------|
C  :15-15-15-15-15-15-15-15-|14-14-14-14-17-17-15-15-|
G  :12-12-12-12-12-12-12-12-|12-12-12-12-12-12-12-12-|
C  :12-12-12-12-12-12-12-12-|12-12-12-12-12-12-12-12-|

============================================================================

Guitar : 1

D  :------------------------|------------------------|
A  :11-11-11-11-11-11-11-11-|11-11-11-11-10-10-10-10-|
F  :------------------------|------------------------|
C  :------------------------|------------------------|
G  :------------------------|------------------------|
C  :------------------------|------------------------|

Guitar : 2

D  :------------------------|------------------------|
A  :------------------------|------------------------|
F  :------------------------|------------------------|
C  :-8--8--8--8--8--8--8--8-|-8--8--8--8--7--7--7--7-|
G  :-5--5--5--5--5--5--5--5-|-5--5--5--5--5--5--5--5-|
C  :-5--5--5--5--5--5--5--5-|-5--5--5--5--5--5--5--5-|

============================================================================

Guitar : 1

D  :------------------------|----------------|------------------------|
A  :13-13-13-13-13-13-13-13-|8-8-8-8-6-6-6-6-|15-15-15-15-15-15-15-15-|
F  :------------------------|----------------|------------------------|
C  :------------------------|----------------|------------------------|
G  :------------------------|----------------|------------------------|
C  :------------------------|----------------|------------------------|

Guitar : 2

D  :------------------------|----------------|------------------------|
A  :------------------------|----------------|------------------------|
F  :------------------------|----------------|------------------------|
C  :-7--7--7--7--7--7--7--7-|5-5-5-5-3-3-3-3-|12-12-12-12-12-12-12-12-|
G  :-3--3--3--3--3--3--3--3-|1-1-1-1-1-1-1-1-|-8--8--8--8--8--8--8--8-|
C  :-3--3--3--3--3--3--3--3-|1-1-1-1-1-1-1-1-|-8--8--8--8--8--8--8--8-|

============================================================================

Guitar : 1

D  :------------------------|------------------------|
A  :15-15-15-15-17-17-17-17-|18-18-18-18-18-18-18-18-|
F  :------------------------|------------------------|
C  :------------------------|------------------------|
G  :------------------------|------------------------|
C  :------------------------|------------------------|

Guitar : 2

D  :------------------------|------------------------|
A  :------------------------|------------------------|
F  :------------------------|------------------------|
C  :12-12-12-12-14-14-14-14-|15-15-15-15-15-15-15-15-|
G  :-8--8--8--8-10-10-10-10-|12-12-12-12-12-12-12-12-|
C  :-8--8--8--8-10-10-10-10-|12-12-12-12-12-12-12-12-|

============================================================================

Guitar : 1

D  :------------------------|------------------------|
A  :17-17-17-17-20-20-18-18-|11-11-11-11-11-11-11-11-|
F  :------------------------|------------------------|
C  :------------------------|------------------------|
G  :------------------------|------------------------|
C  :------------------------|------------------------|

Guitar : 2

D  :------------------------|------------------------|
A  :------------------------|------------------------|
F  :------------------------|------------------------|
C  :14-14-14-14-17-17-15-15-|-8--8--8--8--8--8--8--8-|
G  :12-12-12-12-12-12-12-12-|-5--5--5--5--5--5--5--5-|
C  :12-12-12-12-12-12-12-12-|-5--5--5--5--5--5--5--5-|

============================================================================

Guitar : 1

D  :------------------------|------------------------|----------------|
A  :11-11-11-11-10-10-10-10-|13-13-13-13-13-13-13-13-|8-8-8-8-6-6-6-6-|
F  :------------------------|------------------------|----------------|
C  :------------------------|------------------------|----------------|
G  :------------------------|------------------------|----------------|
C  :------------------------|------------------------|----------------|

Guitar : 2

D  :------------------------|------------------------|----------------|
A  :------------------------|------------------------|----------------|
F  :------------------------|------------------------|----------------|
C  :-8--8--8--8--7--7--7--7-|-7--7--7--7--7--7--7--7-|5-5-5-5-3-3-3-3-|
G  :-5--5--5--5--5--5--5--5-|-3--3--3--3--3--3--3--3-|1-1-1-1-1-1-1-1-|
C  :-5--5--5--5--5--5--5--5-|-3--3--3--3--3--3--3--3-|1-1-1-1-1-1-1-1-|

============================================================================

Guitar : 1

D  :----------------|----------------|----------------|----------------|
A  :----------------|----------------|----------------|----------------|
F  :----------------|----------------|----------------|----------------|
C  :8---------------|7-------5---3---|0---------------|----------------|
G  :8---------------|7-------5---3---|0---------------|----------------|
C  :8---------------|7-------5---3---|0---------------|----------------|

Guitar : 2

D  :----------------|----------------|----------------|----------------|
A  :----------------|----------------|----------------|----------------|
F  :----------------|----------------|----------------|----------------|
C  :8---------------|7-------5---3---|0---------------|----------------|
G  :8---------------|7-------5---3---|0---------------|----------------|
C  :8---------------|7-------5---3---|0---------------|----------------|

============================================================================

Guitar : 1

D  :----------------|----------------|--------------------|
A  :----------------|----------------|--------------------|
F  :----------------|----------------|--------------------|
C  :----------------|----------------|--------------------|
G  :----------------|----------------|0-0-0---0-0-0-------|
C  :----------------|----------------|0-0-0-*-0-0-0-*-----|

Guitar : 2

D  :----------------|----------------|--------------------|
A  :----------------|----------------|--------------------|
F  :----------------|----------------|--------------------|
C  :----------------|----------------|--------------------|
G  :----------------|----------------|0-0-0---0-0-0-------|
C  :----------------|----------------|0-0-0-*-0-0-0-*-----|

============================================================================

Guitar : 1

D  :--------------------|--------------------|----------------------|
A  :--------------------|--------------------|----------------------|
F  :--------------------|--------------------|----------------------|
C  :--------------------|--------------------|----------------------|
G  :--0-0-0-0---0-0-0-0-|0-0-0---0-0-0---4---|--0-0-0-0-0-0-0---0---|
C  :--0-0-0-0-*-0-0-0-0-|0-0-0-*-0-0-0-*-4---|--0-0-0-0-0-0-0---0---|

Guitar : 2

D  :--------------------|--------------------|----------------------|
A  :--------------------|--------------------|----------------------|
F  :--------------------|--------------------|----------------------|
C  :--------------------|--------------------|----------------------|
G  :--0-0-0-0---0-0-0-0-|0-0-0---0-0-0---4---|--0-0-0-0-0-0-0---0---|
C  :--0-0-0-0-*-0-0-0-0-|0-0-0-*-0-0-0-*-4---|--0-0-0-0-0-0-0---0---|

============================================================================

Guitar : 1

D  :--------------------|--------------------|--------------------|
A  :--------------------|--------------------|--------------------|
F  :--------------------|--------------------|--------------------|
C  :--------------------|--------------------|--------------------|
G  :0-0-0---0-0-0-------|--0-0-0-0---0-0-0-0-|0-0-0---0-0-0---4---|
C  :0-0-0-*-0-0-0-*-----|--0-0-0-0-*-0-0-0-0-|0-0-0-*-0-0-0-*-4---|

Guitar : 2

D  :--------------------|--------------------|--------------------|
A  :--------------------|--------------------|--------------------|
F  :--------------------|--------------------|--------------------|
C  :--------------------|--------------------|--------------------|
G  :0-0-0---0-0-0-------|--0-0-0-0---0-0-0-0-|0-0-0---0-0-0---4---|
C  :0-0-0-*-0-0-0-*-----|--0-0-0-0-*-0-0-0-0-|0-0-0-*-0-0-0-*-4---|

============================================================================

Guitar : 1

D  :----------------------|--------------------|--------------------|
A  :----------------------|--------------------|--------------------|
F  :----------------------|--------------------|--------------------|
C  :----------------------|--------------------|--------------------|
G  :--0-0-0-0-0-0-0---0---|0-0-0---0-0-0-------|--0-0-0-0---0-0-0-0-|
C  :--0-0-0-0-0-0-0---0---|0-0-0-*-0-0-0-*-----|--0-0-0-0-*-0-0-0-0-|

Guitar : 2

D  :----------------------|--------------------|--------------------|
A  :----------------------|--------------------|--------------------|
F  :----------------------|--------------------|--------------------|
C  :----------------------|--------------------|--------------------|
G  :--0-0-0-0-0-0-0---0---|0-0-0---0-0-0-------|--0-0-0-0---0-0-0-0-|
C  :--0-0-0-0-0-0-0---0---|0-0-0-*-0-0-0-*-----|--0-0-0-0-*-0-0-0-0-|

============================================================================

Guitar : 1

D  :--------------------|----------------------|--------------------|
A  :--------------------|----------------------|--------------------|
F  :--------------------|----------------------|--------------------|
C  :--------------------|----------------------|--------------------|
G  :0-0-0---0-0-0---4---|--0-0-0-0-0-0-0---0---|0-0-0---0-0-0-------|
C  :0-0-0-*-0-0-0-*-4---|--0-0-0-0-0-0-0---0---|0-0-0-*-0-0-0-*-----|

Guitar : 2

D  :--------------------|----------------------|--------------------|
A  :--------------------|----------------------|--------------------|
F  :--------------------|----------------------|--------------------|
C  :--------------------|----------------------|--------------------|
G  :0-0-0---0-0-0---4---|--0-0-0-0-0-0-0---0---|0-0-0---0-0-0-------|
C  :0-0-0-*-0-0-0-*-4---|--0-0-0-0-0-0-0---0---|0-0-0-*-0-0-0-*-----|

============================================================================

Guitar : 1

D  :--------------------|--------------------|----------------------|
A  :--------------------|--------------------|----------------------|
F  :--------------------|--------------------|----------------------|
C  :--------------------|--------------------|----------------------|
G  :--0-0-0-0---0-0-0-0-|0-0-0---0-0-0---4---|--0-0-0-0-0-0-0---0---|
C  :--0-0-0-0-*-0-0-0-0-|0-0-0-*-0-0-0-*-4---|--0-0-0-0-0-0-0---0---|

Guitar : 2

D  :--------------------|--------------------|----------------------|
A  :--------------------|--------------------|----------------------|
F  :--------------------|--------------------|----------------------|
C  :--------------------|--------------------|----------------------|
G  :--0-0-0-0---0-0-0-0-|0-0-0---0-0-0---4---|--0-0-0-0-0-0-0---0---|
C  :--0-0-0-0-*-0-0-0-0-|0-0-0-*-0-0-0-*-4---|--0-0-0-0-0-0-0---0---|

============================================================================

Guitar : 1

D  :----------------|
A  :----------------|
F  :----------------|
C  :----------------|
G  :0---------------|
C  :0-*-------------|

Guitar : 2

D  :----------------|
A  :----------------|
F  :----------------|
C  :----------------|
G  :0---------------|
C  :0-*-------------|
Tap to rate this tab
# A B C D E F G H I J K L M N O P Q R S T U V W X Y Z