Song name
# A B C D E F G H I J K L M N O P Q R S T U V W X Y Z

Misc Unsigned Bands - Valeri Belokon - When Never Meant Never tab

Tabs and song written exclusively by Valeri V. Belokon III
Please do not steal:)

Song: When Never Meant Never
Tuning: Drop G# (bassG#,bassC#,bassF#,bassB#,trebleE#,trebleA#)

Intro pt.1 Gp I

  |EE-S SE-EE-S SE-EE-S EE-EE-S SE-EE-S SE-EE-S SE-EE-S EE-EE-S SE-|
A#|----------------------------------------------------------------|
E#|----------------------------------------------------------------|
B#|----------------------------------------------------------------|
F#|------5-------5-------3~------3~------5-------5-------3~------3~|
C#|77-7h9--77-7h9--55-5h7--55-5h7--77-7h9--77-7h9--55-5h7--55-5h7--|
G#|----------------------------------------------------------------|

Into pt.1 Gp II

  |EE---EE---EE---EE---EE---EE---EE---EE---|
A#|----------------------------------------|
E#|----------------------------------------|
B#|----------------------------------------|
F#|99---99---77---77---99---99---77---77---|
C#|77---77---55---55---77---77---55---55-\-|
G#|77---77---55---55---77---77---55---55-\-|

---------------
Intro pt.2 Gp I

  |EE-S SE-SSSSSSSS-SSSSSSSS-QQ~|
A#|-----------------------------|
E#|-----------------------------|
B#|-----------------------------|
F#|------5----23202----020-0--2~|
C#|77-7h9--545------323---3--2--|
G#|-----------------------------|

Intro pt.2 Gp II 

  |E--E--E--E--E--E--Q~|  |-----------|
A#|--------------------|  |-----------|
E#|--------------------|  |-----------|
B#|--------------------|x4|-----------|
F#|------------------3~|  |-----------|
C#|--------------------|  |-----------|
G#|0p-0p-0p-0p-0p-0p---|  |0p-0p-0p-0p|

---------------
Intro pt.3 GP I

  |E-ESSS-SSSQ     -Q-E-ESSS-E   Q~|
A#|--------------------------------|
E#|--------------------------------|
B#|--------------------------------|
F#|5------------------5---7------7~|
C#|--8757----5h12h5-5---87-7-12h7--|
G#|-------878----------------------|

Intro pt.3 Gp II

  |EEE-EEE-EEE-E-EEE-EEE-EEE-E|
A#|---------------------------|
E#|---------------------------|
B#|---------------------------|
F#|---------------------------|
C#|---------------------------|
G#|000-000-000-0-666-666-666-6|

------------
Verse 1 Gp I
  |S-SS-SS-SSSSSQ   -E-S-SS-SS-SSSSQ      -E-S-SS-SS-SSSSQ    -E|
A#|-------------------------------------------------------------|
E#|-------------------------------------------------------------|
B#|-------------------------------------------------------------|
F#|---------------------------------1h12h3-3~-------------------|
C#|----------01h12h2-2------------01-------------------01h12h2-2|
G#|0-00-00-12----------0-00-00-12------------0-00-00-12---------|

  |-----------------SS-E~SS-E~|
A#|---------------------------|
E#|---------------------------|
B#|--------------------3~---3~|
F#|-----------------00---00---|
C#|---------------------------|
G#|---------------------------|


Verse 1 Gp II

  |S-SS-SS-SSS-SSS|  |SSSSSSSSSSSSSSSS|
A#|---------------|  |----------------|
E#|---------------|  |----------------|
B#|---------------|  |5555555522222222|
F#|---------------|x3|5555555522222222|x2
C#|---------------|  |3333333300000000|
G#|0-00-00-000-000|  |----------------|

------------
Verse 2 Gp I

  |SS-SSS-SS-S SS |  |-----|
A#|---------------|  |-----|
E#|------------5--|  |54---|
B#|---------------|x8|--897|
F#|----------2p-4p|  |-----|
C#|-------23------|  |-----|
G#|00-000---------|  |-----|

Verse 2 Gp II
  |SS-SSS-SSS-SSS|
A#|--------------|
E#|--------------|
B#|--------------|
F#|--------------|x8
C#|--------------|
G#|00-000-000-000|

Intro
Verse 2 (only 4x)
Intro pt.1

------------
Vers3 3 Gp I

  |SSSSSSSSSSSSSSSS|  |SSSSSSSSSSSSSSSS|
A#|----------------|  |----------------|
E#|----------------|  |----------------|
B#|5555555522222222|  |----------------|
F#|5555555522222222|x2|7777777744444444|
C#|3333333300000000|  |5555555522222222|
G#|----------------|  |----------------|

Verse 1 x2

----------
Outro Gp I

  |SS-E~SS-E~SS-E~SS-E~SS-E~SS-E~SS-E~E |
A#|-------------------------------------|
E#|-----------------------------------0p|
B#|---3~---3~----1~---1~---3~--3~---1~0p|
F#|00---00----00---00---00---00--00-----|
C#|-------------------------------------|
G#|-------------------------------------|

Outro Gp II

  |SS-SSS-SSS-SSS-SS-SSS-SSS-S|
A#|---------------------------|
E#|---------------------------|
B#|---------------------------|
F#|---------------------------|
C#|---------------------------|
G#|00-000-000-000-00-000-000-0|

Tap to rate this tab
 
# A B C D E F G H I J K L M N O P Q R S T U V W X Y Z