Song name
# A B C D E F G H I J K L M N O P Q R S T U V W X Y Z

Misc Unsigned Bands - Eternum Noctem - Oden tab

Riff 1
e|----------------|----------------|----------------|----------------|
B|----------------|----------------|----------------|----------------|
G|----------------|----------------|----------------|----------------|
D|----------------|----------------|----------------|----------------|
A|9-9-9-9-9-9-9-9-|1010101010101010|9-9-9-9-10109-9-|5-5-5-5-5-5-5-5-|
E|7-7-7-7-7-7-7-7-|8-8-8-8-8-8-8-8-|7-7-7-7-8-8-7-7-|3-3-3-3-3-3-3-3-|

Riff 2
|------------|------------|------------|------------|
|------------|------------|------------|------------|
|------------|------------|------------|------------|
|------------|------------|------------|------------|
|-4--4--4--4-|-5--5--5--5-|-6--6--6--6-|-5--5--5--5-|
|-2--2--2--2-|-3--3--3--3-|-4--4--4--4-|-3--3--3--3-|

Riff 3
|----------------|----------------|------------------------|----------------|
|----------------|----------------|------------------------|----------------|
|----------------|----------------|------------------------|----------------|
|----------------|----------------|------------------------|----------------|
|9-9-9-9-9-9-9-9-|1010101010101010|12-12-12-12-12-12-12-12-|1010101010101010|
|7-7-7-7-7-7-7-7-|8-8-8-8-8-8-8-8-|10-10-10-10-10-10-10-10-|8-8-8-8-8-8-8-8-|

|----------------|----------------|----------------|----------------|
|----------------|----------------|----------------|----------------|
|----------------|----------------|----------------|----------------|
|----------------|----------------|----------------|----------------|
|9-9-9-9-9-9-9-9-|1010101010101010|7-7-7-7-7-7-7-7-|5-5-5-5-5-5-5-5-|
|7-7-7-7-7-7-7-7-|8-8-8-8-8-8-8-8-|5-5-5-5-5-5-5-5-|3-3-3-3-3-3-3-3-|

Riff 3B
Riff 3x1
Then:
|----------------|----------------|------------------------|----------------|
|----------------|----------------|------------------------|----------------|
|----------------|----------------|------------------------|----------------|
|----------------|----------------|------------------------|----------------|
|9-9-9-9-9-9-9-9-|1010101010101010|12-12-12-12-12-12-12-12-|1010101010101010|
|7-7-7-7-7-7-7-7-|8-8-8-8-8-8-8-8-|10-10-10-10-10-10-10-10-|8-8-8-8-8-8-8-8-|

|----------------|----------------|----------------|----------------|
|----------------|----------------|----------------|----------------|
|----------------|----------------|----------------|----------------|
|----------------|----------------|----------------|----------------|
|9-9-9-9-9-9-9-9-|1010101010101010|7---------------|5-4-2-----------|
|7-7-7-7-7-7-7-7-|8-8-8-8-8-8-8-8-|5---------------|3-2-0-----------|

Structure:
Intro: Riff 1x2
Verse: Riff 1x4
Fill: Riff 3x2
Chorus: Riff 2x4
Fill: Riff 3x2
Verse: Riff 1x4
Fill: Riff 3x2
Chorus: Riff 2x4
Outro: Riff 3Bx1
Tap to rate this tab
# A B C D E F G H I J K L M N O P Q R S T U V W X Y Z