Song name
# A B C D E F G H I J K L M N O P Q R S T U V W X Y Z

Misc Unsigned Bands - Y Luv - Ok All Night tab

Really fun song from a relatively unknown band.
Check them out at www.myspace.com/yluvmusic


(Intro/verse 1: palm muted)
"We have these good times..."
e|--------------------------------------------------------------------------|
B|--------------------------------------------------------------------------|
G|--------------------------------------------------------------------------|
D|---------7-----------------------7----------------------------------------|
A|----4------4--7-7-7-7-7-5----4-----4--5-5-5-5-5-4-------------------------|
E|--5---5--------------------5---5------------------------------------------|

"We cannot stop it now..."
e|----------------------------------------------|
B|----------------------------------------------|
G|----------------------------------------------|
D|----------------------------------------------|
A|----------------------------------------------|
E|--5--5--5----5--5--5----5--5--5----5--5--5----|

(Verse 2)
e|---------------------------------------------------------------------|
B|---------------------------------------------------------------------|
G|---------------------------------------------------------------------|
D|----------99999-7-----------77777-6----------------------------------|
A|--7x7x7---77777-5---7x7x7---55555-4----------------------------------|
E|--5x5x5-------------5x5x5--------------------------------------------|

"We cannot stop it now..."
e|-------------------------------------------------|
B|-------------------------------------------------|
G|-------------------------------------------------|
D|-------------------------------------------------|
A|--7--7--7----7--7--7----7--7--7----7--7--7-------|
E|--5--5--5----5--5--5----5--5--5----5--5--5-------|

"We dance, like this. We move...we're the shit"
e|-------------------------------------------------|
B|-------------------------------------------------|
G|-------------------------------------------------|
D|-------------------------------------------------|
A|--7--7--7----7--7--7----7--7--7----7--7--7-------|
E|--5--5--5----5--5--5----5--5--5----5--5--5-------|

"All my friends pour in my door..."
e|---------------------------------------------------------------------|
B|---------------------------------------------------------------------|
G|---------------------------------------------------------------------|
D|---------7777777-----------------------------------------------------|
A|--444444-5555555-7777777-9999999-------------------------------------|
E|--222222---------5555555-7777777-------------------------------------|

"Seven hours, we still want more."
e|---------------------------------------------------------------------|
B|---------------------------------------------------------------------|
G|---------------------------------------------------------------------|
D|---------7777777-----------------------------------------------------|
A|--444444-5555555-7777777777777777------------------------------------|
E|--222222---------5555555555555555------------------------------------|

(Verse 3)
e|---------------------------------------------------------------------|
B|---------------------------------------------------------------------|
G|---------------------------------------------------------------------|
D|----------99999-7-----------77777-6----------------------------------|
A|--7x7x7---77777-5---7x7x7---55555-4----------------------------------|
E|--5x5x5-------------5x5x5--------------------------------------------|

"We cannot stop it now..."
e|-------------------------------------------------|
B|-------------------------------------------------|
G|-------------------------------------------------|
D|-------------------------------------------------|
A|--7--7--7----7--7--7----7--7--7----7--7--7-------|
E|--5--5--5----5--5--5----5--5--5----5--5--5-------|

"We dance, like this. We move...we're the shit"
e|-------------------------------------------------|
B|-------------------------------------------------|
G|-------------------------------------------------|
D|-------------------------------------------------|
A|--7--7--7----7--7--7----7--7--7----7--7--7-------|
E|--5--5--5----5--5--5----5--5--5----5--5--5-------|

"All my friends pour in my door..."
e|---------------------------------------------------------------------|
B|---------------------------------------------------------------------|
G|---------------------------------------------------------------------|
D|---------7777777-----------------------------------------------------|
A|--444444-5555555-7777777-9999999-------------------------------------|
E|--222222---------5555555-7777777-------------------------------------|

"Seven hours, we still want more."
e|---------------------------------------------------------------------|
B|---------------------------------------------------------------------|
G|---------------------------------------------------------------------|
D|---------7777777-----------------------------------------------------|
A|--444444-5555555-7777777777777777------------------------------------|
E|--222222---------5555555555555555------------------------------------|


e|---------------------------------------------------------------------|
B|---------------------------------------------------------------------|
G|---------------------------------------------------------------------|
D|----------99999-7-----------77777-6----------------------------------|
A|--7x7x7---77777-5---7x7x7---55555-4----------------------------------|
E|--5x5x5-------------5x5x5--------------------------------------------|

e|---------------------------------------------------------------------|
B|---------------------------------------------------------------------|
G|---------------------------------------------------------------------|
D|------9-7------7-6------9-7------7-6---------------------------------|
A|--7---7-5--7---5-4--7---7-5--7---5-4--7------------------------------|
E|--5--------5--------5--------5--------5------------------------------|

Tap to rate this tab
 
# A B C D E F G H I J K L M N O P Q R S T U V W X Y Z