Song name
# A B C D E F G H I J K L M N O P Q R S T U V W X Y Z

Misc Unsigned Bands - Bears Eat Me - The Lifeless tab

Bears Eat Me
The Lifeless
Drop D Tuning

SONG ORDER

GUITAR 1
INTRO
HEAVIER INTRO
VERSE A
VERSE 1B
VERSE 2B
CHORUS
VERSE 1B
VERSE 2B
INTERLUDE
CHORUS
DRUM BREAK
ODD BUILD-UP
CHORUS
OUTRO A
OUTRO B

 4X INTRO GUITAR 1 (BRYAN AXE)
 |---|---|---|---|---|---|---|---|---|---|---|---|---|---|---|---|
 ----------------------------------------------------------------|
 ----------------------------------------------------------------|
 ------------------------------------------------5---5---5-------|
 --------3---------------3---------------3-----------------------|
 2---2-------0---2---2-------0---2---2-------0---3---3---3---0---|
 ----------------------------------------------------------------|
 PM  PM      PM  PM  PM      PM  PM  PM                      PM

 4X INTRO GUITAR 2 (STEPHEN WROTH)
 |---|---|---|---|---|---|---|---|---|---|---|---|---|---|---|---|
 ----------------------------------------------------------------|
 ----------------------------------------------------------------|
 ----------------------------------------------------------------|
 --------3---------------3---------------3---------------3-------|
 2---2-------0---2---2-------0---2---2-------0---2---2-------0---|
 ----------------------------------------------------------------|
 PM  PM      PM  PM  PM      PM  PM  PM      PM  PM  PM


 2X HEAVIER INTRO GUITAR 1 (BRYAN AXE)
 |---|---|---|---|---|---|---|---|---|---|---|---|---|---|---|--->
 ---------------------------------------------------------------->
 ---------------------------------------------------------------->
 ----------------------------14--14\-12--12\-10--10\-9---9\--7--->
 0---0---0---0---0---0---0--------------------------------------->
 0---0---0---0---0---0---0---12--12\-10--10\-8---8\--7---7\--5--->
 0---0---0---0---0---0---0--------------------------------------->
 [           PM          ]

<|---|---|---|---|---|---|---|---|---|---|---|---|---|---|---|---|
<----------------------------------------------------------------|
<----------------------------------------------------------------|
<----------------------------14--14\-12--12\-10--10\-9---9\--7---|
<0---0---0---0---0---0---0---------------------------------------|
<0---0---0---0---0---0---0---12--12\-10--10\-8---8\--7---7\--5---|
<0---0---0---0---0---0---0---------------------------------------|
<[           PM          ]

 2X HEAVIER GUITAR INTRO GUITAR 2 (STEPHEN WROTH)
 |---|---|---|---|---|---|---|---|---|---|---|---|---|---|---|---|
 ----------------------------------------------------------------|
 ----------------------------------------------------------------|
 ----------------------------------------------------------------|
 ----------------------------------------------------------------|
 ----------------------------------------------------------------|
 ----------------------------------------------------------------|

 2X VERSE A GUITARS 1 AND 2
 |---|---|---|---|---|---|---|---|---|---|---|---|---|---|---|---|
 ----------------------------------------------------------------|
 ----------------------------------------------------------------|
 2~~~~~~~~~~~~~~~----------------5~~~~~~~~~~~~~~~----------------|
 2~~~~~~~~~~~~~~~3~~~~~~~~~~~~~~~5~~~~~~~~~~~~~~~0~~~~~~~~~~~~~~~
 0~~~~~~~~~~~~~~~3~~~~~~~~~~~~~~~3~~~~~~~~~~~~~~~0~~~~~~~~~~~~~~~
 ----------------3~~~~~~~~~~~~~~~----------------0~~~~~~~~~~~~~~~

 2X VERSE 1B GUITAR 1 (BRYAN AXE)
 |---|---|---|---|---|---|---|---|---|---|---|---|---|---|---|--->
 ---------------------------------------------------------------->
 ---------------------------------------------------------------->
 9--h10--9-7-----9--h10--9-7-----9--h10--9-7-----5/--7~~~~~~~~~~~>
 ---------------------------------------------------------------->
 ---------------------------------------------------------------->
 ---------------------------------------------------------------->

<|---|---|---|---|---|---|---|---|---|---|---|---|---|---|---|----|
<-----------------------------------------------------------------|
<-----------------------------------------------------------------|
<9--h10--9-7-----9--h10--9-7-----9--h10--9-7-----5/--7~~~~~~~~~~~-|
<-----------------------------------------------------------------|
<-----------------------------------------------------------------|
<-----------------------------------------------------------------|

 2X VERSE 1B GUITAR 2 (STEPHEN WROTH)
 |---|---|---|---|---|---|---|---|---|---|---|---|---|---|---|---|
 ----------------------------------------------------------------|
 ----------------------------------------------------------------|
 ----------------------------------------------------------------|
 ----------------------------------------------------------------|
 ----------------------------------------------------------------|
 ----------------------------------------------------------------|

|---|---|---|---|---|---|---|---|---|---|---|---|---|---|---|---|
----------------------------------------------------------------|
----------------------------------------------------------------|
----------------------------------------------------------------|
----------------------------------------------------------------|
----------------------------------------------------------------|
----------------------------------------------------------------|
Tap to rate this tab
# A B C D E F G H I J K L M N O P Q R S T U V W X Y Z