Song name
# A B C D E F G H I J K L M N O P Q R S T U V W X Y Z

Misc Unsigned Bands - Aaron Ochoa - Usa National Anthem tab

i took a bunch of of different ways to play this and mix them and then added my own 
twist to it too soooo.... here it is :D

standard tuning
~ =vibrato
s =slide
h =hammer on
p =pull off
X2 =do it twice

									X2
e --------------------------------------------------------------------------|
B --------------------------------------9-7---------------------------------|
G -----------9~-b11--9-----------------------9-8--6-8-8s9-9-----------------|
D -9-6---6-9-----------6s7s6-8-9----9-9---------------------9-6-------------|
A -----7--------------------------------------------------------7-----------|
E --------------------------------------------------------------------------|

D --------------------------------------------------------------------------|
A -9-9-9-10-10s12-12~----10-9-7-9-9s10-10~---10-9-7-------------------------|
F --------------------------------------------------9-8---------------------|
C ------------------------------------------------------6-8-8s9-------------|
G ---------------------------------------------------------------6-8-8s9----|
C --------------------------------------------------------------------------|

D --------------------------------------------------------------------------|
A --------------------------------------------------------------------------|
F ---9-9-9-8-6-6-6-6s11--13-13s14s13--13--11---9h11p9-8---------------------|
C -9------------------------------------------------------------------------|
G --------------------------------------------------------------------------|
C --------------------------------------------------------------------------|

D --------------------------------------------------------------------------|
A --------------------------------------------------------------------------|
F -----9-11-11s13-13s14-14~------9-11-11s13-13s14--13h14p13--11~----9-------|
C -9-9----------------------------------------------------------------------|
G --------------------------------------------------------------------------|
C --------------------------------------------------------------------------|
Tap to rate this tab
# A B C D E F G H I J K L M N O P Q R S T U V W X Y Z